Guitar Tabs, Chords and Lyrics


These Walls    Dream Theater



These Walls

7-String Guitar



D||-------------------|------------------------------------|
A||-------------------|------------------------------------|
F||-------------------|------------------------------------|
C||-------------------|------------------------------------|
G||--2----------------|------------------------------------|
D||--2----------------|------------------7-----------------|
A||--0----------------|--0--0----0----0-----0----0--3-5-7--|



------------------------------------|------------------------------------|
------------------------------------|------------------------------------|
------------------------------------|------------------------------------|
------------------------------------|------------------------------------|
------------------------------------|------------------------------------|
------------------3-----------------|------------------7-----------------|
--0--0----0----0-----0----0--3-5-7--|--0--0----0----0-----0----0--3-5-7--|



-----------------------------------|-------------------|-------------------|
-----------------------------------|-------------------|-------------------|
-----------------------------------|-------------------|-------------------|
-----------------------------------|-------------------|-------------------|
-----------------------------------|--2----------------|--5----------------|
--------3-2-0----------------------|--2----------------|--5----------------|
--0---0-------3-2-0-5--------------|--0----------------|-------------------|



-------------------|----------------------------|-------------------|
-------------------|----------------------------|-------------------|
-------------------|----------------------------|-------------------|
-------------------|----------------------------|-------------------|
--5----------------|--5------------7------------|--2----------------|
--3----------------|--3------------5------------|--2----------------|
-------------------|----------------------------|--0----------------|



-------------------|-------------------|----------------------------|
-------------------|-------------------|----------------------------|
-------------------|-------------------|----------------------------|
-------------------|-------------------|----------------------------|
--5----------------|--7----------------|--7------------9------------|
--5----------------|--7----------------|--7------------9------------|
-------------------|--5----------------|--5------------7------------|



-------------------|-------------------|-------------------|
-------------------|-------------------|-------------------|
-------------------|-------------------|-------------------|
-------------------|-------------------|-------------------|
--2----------------|--5----------------|--5----------------|
--2----------------|--5----------------|--3----------------|
--0----------------|-------------------|-------------------|



----------------------------|-------------------|------------------|
----------------------------|-------------------|------------------|
----------------------------|-------------------|------------------|
----------------------------|--2----------------|------------------|
--5------------7------------|--2----------------|------------------|
--3------------5------------|--0----------------|------------------|
----------------------------|-------------------|------------------|



-------------------|--------------------------|--2---------------------------|
-------------------|--------------------------|---------3-------------3------|
-------------------|--------------------------|----------------4-------------|
--5----------------|--------------------------|------------------------------|
--5----------------|--------------------------|------------------------------|
--3----------------|--------------------------|------------------------------|
-------------------|--------------------------|------------------------------|



----------------------------|-----------------0--------------|
--2-------------------------|------------2---------2---------|
---------------4------------|-------4-------------------4----|
----------------------------|--4-----------------------------|
----------------------------|--------------------------------|
----------------------------|--------------------------------|
----------------------------|--------------------------------|



---------0----------------|-----------------------------|
----------------0----2----|--3---------------------3----|
--------------------------|---------------4-------------|
--4-----------------------|-----------------------------|
--------------------------|-----------------------------|
--------------------------|-----------------------------|
--------------------------|-----------------------------|



----------------------------|--------------------------------|
--2------------2------------|-----------------3--------------|
----------------------------|------------4---------4---------|
----------------------------|-------4-------------------4----|
----------------------------|--2-----------------------------|
----------------------------|--------------------------------|
----------------------------|--------------------------------|



-----------------------|--2---------------------------|
-----------------------|---------3-------------3------|
-----------------------|----------------4-------------|
-----------------------|------------------------------|
--2--------------------|------------------------------|
-----------------------|------------------------------|
-----------------------|------------------------------|



----------------------------|-----------------0--------------|
--2-------------------------|------------2---------2---------|
---------------4------------|-------4-------------------4----|
----------------------------|--4-----------------------------|
----------------------------|--------------------------------|
----------------------------|--------------------------------|
----------------------------|--------------------------------|



---------0----------------|-----------------------------|
----------------0----2----|--3---------------------3----|
--------------------------|---------------4-------------|
--4-----------------------|-----------------------------|
--------------------------|-----------------------------|
--------------------------|-----------------------------|
--------------------------|-----------------------------|



----------------------------|--------------------------------|
--2------------2------------|-----------------3--------------|
----------------------------|------------4---------4---------|
----------------------------|-------4-------------------4----|
----------------------------|--2-----------------------------|
----------------------------|--------------------------------|
----------------------------|--------------------------------|



-----------------------|--2---------------------------|
-----------------------|---------3-------------3------|
-----------------------|----------------4-------------|
-----------------------|------------------------------|
--2--------------------|------------------------------|
-----------------------|------------------------------|
-----------------------|------------------------------|



----------------------------|-----------------0--------------|
--2-------------------------|------------2---------2---------|
---------------4------------|-------4-------------------4----|
----------------------------|--4-----------------------------|
----------------------------|--------------------------------|
----------------------------|--------------------------------|
----------------------------|--------------------------------|



---------0----------------|-----------------------------|
----------------0----2----|--3---------------------3----|
--------------------------|---------------4-------------|
--4-----------------------|-----------------------------|
--------------------------|-----------------------------|
--------------------------|-----------------------------|
--------------------------|-----------------------------|



----------------------------|--------------------------------|
--2------------2------------|-----------------3--------------|
----------------------------|------------4---------4---------|
----------------------------|-------4-------------------4----|
----------------------------|--2-----------------------------|
----------------------------|--------------------------------|
----------------------------|--------------------------------|



-------------------|-------------------------------|
-------------------|-------------------------------|
-------------------|-------------------------------|
-------------------|-------------------------------|
--2----------------|--5------5----x--4------5------|
-------------------|--3----------------------------|
-------------------|-------------------------------|



-------------------------------|-------------------------------|
-------------------------------|-------------------------------|
-------------------------------|-------------------------------|
-------------------------------|-------------------------------|
--5------5----x--4------5------|--5------5----x--4------5------|
--5----------------------------|--7----------------------------|
-------------------------------|-------------------------------|



-------------------------------|-------------------------------|
-------------------------------|-------------------------------|
-------------------------------|-------------------------------|
-------------------------------|-------------------------------|
--5------5----x--4------5------|--5------5----x--4------5------|
--7----------------------------|--3----------------------------|
-------------------------------|-------------------------------|



-------------------------------|-------------------|--------------------------|
-------------------------------|-------------------|--------------------------|
-------------------------------|-------------------|--------------------------|
-------------------------------|--2----------------|--------------------------|
--5------5----x--4------5------|--2----------------|--------------------------|
--5----------------------------|--0----------------|--------------------------|
-------------------------------|-------------------|--------------------------|



-------------------|-------------------|-------------------|
-------------------|-------------------|-------------------|
-------------------|-------------------|-------------------|
-------------------|-------------------|-------------------|
--2----------------|--5----------------|--5----------------|
--2----------------|--5----------------|--3----------------|
--0----------------|-------------------|-------------------|



----------------------------|-------------------|-------------------|
----------------------------|-------------------|-------------------|
----------------------------|-------------------|-------------------|
----------------------------|-------------------|-------------------|
--5------------7------------|--2----------------|--5----------------|
--3------------5------------|--2----------------|--5----------------|
----------------------------|--0----------------|-------------------|



-------------------|----------------------------|-------------------|
-------------------|----------------------------|-------------------|
-------------------|----------------------------|-------------------|
-------------------|----------------------------|-------------------|
--7----------------|--7------------9------------|--2----------------|
--7----------------|--7------------9------------|--2----------------|
--5----------------|--5------------7------------|--0----------------|



-------------------|-------------------|----------------------------|
-------------------|-------------------|----------------------------|
-------------------|-------------------|----------------------------|
-------------------|-------------------|----------------------------|
--5----------------|--5----------------|--5------------7------------|
--5----------------|--3----------------|--3------------5------------|
-------------------|-------------------|----------------------------|



-------------------|------------------|-------------------|
-------------------|------------------|-------------------|
-------------------|------------------|-------------------|
--2----------------|------------------|--5----------------|
--2----------------|------------------|--5----------------|
--0----------------|------------------|--3----------------|
-------------------|------------------|-------------------|



--------------------------|--2---------------------------|
--------------------------|---------3-------------3------|
--------------------------|----------------4-------------|
--------------------------|------------------------------|
--------------------------|------------------------------|
--------------------------|------------------------------|
--------------------------|------------------------------|



----------------------------|-----------------0--------------|
--2-------------------------|------------2---------2---------|
---------------4------------|-------4-------------------4----|
----------------------------|--4-----------------------------|
----------------------------|--------------------------------|
----------------------------|--------------------------------|
----------------------------|--------------------------------|



---------0----------------|-----------------------------|
----------------0----2----|--3---------------------3----|
--------------------------|---------------4-------------|
--4-----------------------|-----------------------------|
--------------------------|-----------------------------|
--------------------------|-----------------------------|
--------------------------|-----------------------------|



----------------------------|--------------------------------|
--2------------2------------|-----------------3--------------|
----------------------------|------------4---------4---------|
----------------------------|-------4-------------------4----|
----------------------------|--2-----------------------------|
----------------------------|--------------------------------|
----------------------------|--------------------------------|



-----------------------|--2---------------------------|
-----------------------|---------3-------------3------|
-----------------------|----------------4-------------|
-----------------------|------------------------------|
--2--------------------|------------------------------|
-----------------------|------------------------------|
-----------------------|------------------------------|



----------------------------|-----------------0--------------|
--2-------------------------|------------2---------2---------|
---------------4------------|-------4-------------------4----|
----------------------------|--4-----------------------------|
----------------------------|--------------------------------|
----------------------------|--------------------------------|
----------------------------|--------------------------------|



---------0----------------|-----------------------------|
----------------0----2----|--3---------------------3----|
--------------------------|---------------4-------------|
--4-----------------------|-----------------------------|
--------------------------|-----------------------------|
--------------------------|-----------------------------|
--------------------------|-----------------------------|



----------------------------|--------------------------------|
--2------------2------------|-----------------3--------------|
----------------------------|------------4---------4---------|
----------------------------|-------4-------------------4----|
----------------------------|--2-----------------------------|
----------------------------|--------------------------------|
----------------------------|--------------------------------|



-----------------------|--2---------------------------|
-----------------------|---------3-------------3------|
-----------------------|----------------4-------------|
-----------------------|------------------------------|
--2--------------------|------------------------------|
-----------------------|------------------------------|
-----------------------|------------------------------|



----------------------------|-----------------0--------------|
--2-------------------------|------------2---------2---------|
---------------4------------|-------4-------------------4----|
----------------------------|--4-----------------------------|
----------------------------|--------------------------------|
----------------------------|--------------------------------|
----------------------------|--------------------------------|



---------0----------------|-----------------------------|
----------------0----2----|--3---------------------3----|
--------------------------|---------------4-------------|
--4-----------------------|-----------------------------|
--------------------------|-----------------------------|
--------------------------|-----------------------------|
--------------------------|-----------------------------|



----------------------------|--------------------------------|
--2------------2------------|-----------------3--------------|
----------------------------|------------4---------4---------|
----------------------------|-------4-------------------4----|
----------------------------|--2-----------------------------|
----------------------------|--------------------------------|
----------------------------|--------------------------------|



-------------------|-------------------------------|
-------------------|-------------------------------|
-------------------|-------------------------------|
-------------------|-------------------------------|
--2----------------|--5------5----x--4------5------|
-------------------|--3----------------------------|
-------------------|-------------------------------|



-------------------------------|-------------------------------|
-------------------------------|-------------------------------|
-------------------------------|-------------------------------|
-------------------------------|-------------------------------|
--5------5----x--4------5------|--5------5----x--4------5------|
--5----------------------------|--7----------------------------|
-------------------------------|-------------------------------|



-------------------------------|-------------------------------|
-------------------------------|-------------------------------|
-------------------------------|-------------------------------|
-------------------------------|-------------------------------|
--5------5----x--4------5------|--5------5----x--4------5------|
--7----------------------------|--3----------------------------|
-------------------------------|-------------------------------|



-------------------------------|-------------------|--------------------------|
-------------------------------|-------------------|--------------------------|
-------------------------------|-------------------|--------------------------|
-------------------------------|--2----------------|--------------------------|
--5------5----x--4------5------|--2----------------|--------------------------|
--5----------------------------|--0----------------|--------------------------|
-------------------------------|-------------------|--------------------------|



-------------------|-------------------|-------------------|
-------------------|-------------------|-------------------|
-------------------|-------------------|-------------------|
-------------------|-------------------|-------------------|
--2----------------|--5----------------|--5----------------|
--2----------------|--5----------------|--3----------------|
--0----------------|-------------------|-------------------|



----------------------------|-------------------|-------------------|
----------------------------|-------------------|-------------------|
----------------------------|-------------------|-------------------|
----------------------------|-------------------|--4----------------|
--5------------7------------|--2----------------|--5----------------|
--3------------5------------|--2----------------|--5----------------|
----------------------------|--0----------------|-------------------|



-------------------|----------------------------|-------------------|
-------------------|----------------------------|-------------------|
-------------------|----------------------------|-------------------|
-------------------|----------------------------|-------------------|
--7----------------|--7------------9------------|--2----------------|
--7----------------|--7------------9------------|--2----------------|
--5----------------|--5------------7------------|--0----------------|



-------------------|-------------------|----------------------------|
-------------------|-------------------|----------------------------|
-------------------|-------------------|----------------------------|
-------------------|-------------------|----------------------------|
--5----------------|--5----------------|--5------------7------------|
--5----------------|--3----------------|--3------------5------------|
-------------------|-------------------|----------------------------|



-------------------|------------------|-------------------|
-------------------|------------------|-------------------|
-------------------|------------------|-------------------|
--2----------------|------------------|--5----------------|
--2----------------|------------------|--5----------------|
--0----------------|------------------|--3----------------|
-------------------|------------------|-------------------|



--------------------------|------------------------|-----------------------|
--------------------------|------------------------|-----------------------|
--------------------------|------------------------|-----------------------|
--------------------------|--2----------------4----|--5--------------------|
--------------------------|--2----------------4----|--5--------------------|
--------------------------|--0----------------2----|--3--------------------|
--------------------------|------------------------|-----------------------|



------------------------------------|----------------------------|
------------------------------------|----------------------------|
------------------------------------|----------------------------|
------------------------------------|----------------------------|
------------------------------------|------------------9----9----|
------------------7-----------------|------------------7----7----|
--0--0----0----0-----0----0--3-5-7--|--0--0----0----0------------|



------------------------|-----------------------|
------------------------|-----------------------|
------------------------|-----------------------|
--2----------------4----|--5--------------------|
--2----------------4----|--5--------------------|
--0----------------2----|--3--------------------|
------------------------|-----------------------|



------------------------------------|---------------------------------|
------------------------------------|---------------------------------|
------------------------------------|---------------------------------|
------------------------------------|---------------------------------|
------------------------------------|------------------9----9----9----|
------------------7-----------------|------------------7----7----7----|
--0--0----0----0-----0----0--3-5-7--|--0--0----0----0-----------------|



------------------------|-----------------------|
------------------------|-----------------------|
------------------------|-----------------------|
--2----------------4----|--5--------------------|
--2----------------4----|--5--------------------|
--0----------------2----|--3--------------------|
------------------------|-----------------------|



------------------------------------|----------------------------|
------------------------------------|----------------------------|
------------------------------------|----------------------------|
------------------------------------|----------------------------|
------------------------------------|------------------9----9----|
------------------7-----------------|------------------7----7----|
--0--0----0----0-----0----0--3-5-7--|--0--0----0----0------------|



-------------------|------------------|-------------------|
-------------------|------------------|-------------------|
-------------------|------------------|-------------------|
--2----------------|------------------|--5----------------|
--2----------------|------------------|--5----------------|
--0----------------|------------------|--3----------------|
-------------------|------------------|-------------------|



----------------------------|------------------------------|
----------------------------|----------------12------------|
----------------------------|--11--------------------------|
--------------7--7----------|------------------------------|
--------------7--7----------|------------------------------|
--------------5--5----------|------------------------------|
----------------------------|------------------------------|



-----------------------------|-------------------|------------------------|
---------------10------------|-------------------|------------------------|
--9--------------------------|--9b---------------|--------------7----9----|
-----------------------------|-------------------|------------------------|
-----------------------------|-------------------|------------------------|
-----------------------------|-------------------|------------------------|
-----------------------------|-------------------|------------------------|



------------------------------|-----------------------------|
----------------12------------|---------------10------------|
--11--------------------------|--9--------------------------|
------------------------------|-----------------------------|
------------------------------|-----------------------------|
------------------------------|-----------------------------|
------------------------------|-----------------------------|



-------------------|--------------------------|----------------17b-----------|
-------------------|--------------15----17----|--19--------------------------|
--9b---------------|--------------------------|------------------------------|
-------------------|--------------------------|------------------------------|
-------------------|--------------------------|------------------------------|
-------------------|--------------------------|------------------------------|
-------------------|--------------------------|------------------------------|



----------------17------------|--------------------|--------------------------|
--17--------------------------|--------------------|--------------15----17----|
------------------------------|--11b---------------|--------------------------|
------------------------------|--------------------|--------------------------|
------------------------------|--------------------|--------------------------|
------------------------------|--------------------|--------------------------|
------------------------------|--------------------|--------------------------|



----------------17b-----------|----------------17------------|
--19--------------------------|--17--------------------------|
------------------------------|------------------------------|
------------------------------|------------------------------|
------------------------------|------------------------------|
------------------------------|------------------------------|
------------------------------|------------------------------|



--19------------19~-----------|--17r---14------14--14----------------|
------------------------------|------------17----------17~-----------|
------------------------------|--------------------------------------|
------------------------------|--------------------------------------|
------------------------------|--------------------------------------|
------------------------------|--------------------------------------|
------------------------------|--------------------------------------|



-------------------------------|-------------------------------|
-------------------------------|-------------------------------|
-------------------------------|-------------------------------|
-------------------------------|-------------------------------|
--5------5----x--4------5------|--5------5----x--4------5------|
--3----------------------------|--5----------------------------|
-------------------------------|-------------------------------|



-------------------------------|-------------------------------|
-------------------------------|-------------------------------|
-------------------------------|-------------------------------|
-------------------------------|-------------------------------|
--5------5----x--4------5------|--5------5----x--4------5------|
--7----------------------------|--7----------------------------|
-------------------------------|-------------------------------|



-------------------------------|-------------------------------|
-------------------------------|-------------------------------|
-------------------------------|-------------------------------|
-------------------------------|-------------------------------|
--5------5----x--4------5------|--5------5----x--4------5------|
--3----------------------------|--5----------------------------|
-------------------------------|-------------------------------|



-------------------|--------------------------|-------------------|
-------------------|--------------------------|-------------------|
-------------------|--------------------------|-------------------|
--2----------------|--------------------------|-------------------|
--2----------------|--------------------------|--2----------------|
--0----------------|--------------------------|--2----------------|
-------------------|--------------------------|--0----------------|



-------------------|-------------------|----------------------------|
-------------------|-------------------|----------------------------|
-------------------|-------------------|----------------------------|
-------------------|-------------------|----------------------------|
--5----------------|--5----------------|--5------------7------------|
--5----------------|--3----------------|--3------------5------------|
-------------------|-------------------|----------------------------|



-------------------|-------------------|-------------------|
-------------------|-------------------|-------------------|
-------------------|-------------------|-------------------|
-------------------|--4----------------|-------------------|
--2----------------|--5----------------|--7----------------|
--2----------------|--5----------------|--7----------------|
--0----------------|-------------------|--5----------------|



----------------------------|-------------------|-------------------|
----------------------------|-------------------|-------------------|
----------------------------|-------------------|-------------------|
----------------------------|-------------------|-------------------|
--7------------9------------|--2----------------|--5----------------|
--7------------9------------|--2----------------|--5----------------|
--5------------7------------|--0----------------|-------------------|



-------------------|----------------------------|-------------------|
-------------------|----------------------------|-------------------|
-------------------|----------------------------|-------------------|
-------------------|----------------------------|--2----------------|
--5----------------|--5------------7------------|--2----------------|
--3----------------|--3------------5------------|--0----------------|
-------------------|----------------------------|-------------------|



------------------|-------------------|-----------------------------|
------------------|-------------------|-----------------------------|
------------------|-------------------|--------------4----4----4----|
------------------|--5----------------|--------------7----7----7----|
------------------|--5----------------|--------------7----7----7----|
------------------|--3----------------|--------------5----5----5----|
------------------|-------------------|-----------------------------|



-------------------|-------------------|-------------------|
-------------------|-------------------|-------------------|
-------------------|-------------------|-------------------|
-------------------|-------------------|-------------------|
--2----------------|--5----------------|--5----------------|
--2----------------|--5----------------|--3----------------|
--0----------------|-------------------|-------------------|



----------------------------|-------------------|-------------------|
----------------------------|-------------------|-------------------|
----------------------------|-------------------|-------------------|
----------------------------|-------------------|--4----------------|
--5------------7------------|--2----------------|--5----------------|
--3------------5------------|--2----------------|--5----------------|
----------------------------|--0----------------|-------------------|



-------------------|----------------------------|-------------------|
-------------------|----------------------------|-------------------|
-------------------|----------------------------|-------------------|
-------------------|----------------------------|-------------------|
--7----------------|--7------------9------------|--2----------------|
--7----------------|--7------------9------------|--2----------------|
--5----------------|--5------------7------------|--0----------------|



-------------------|-------------------|----------------------------|
-------------------|-------------------|----------------------------|
-------------------|-------------------|----------------------------|
-------------------|-------------------|----------------------------|
--5----------------|--5----------------|--5------------7------------|
--5----------------|--3----------------|--3------------5------------|
-------------------|-------------------|----------------------------|



-------------------|------------------|-------------------|
-------------------|------------------|-------------------|
-------------------|------------------|-------------------|
--2----------------|------------------|--5----------------|
--2----------------|------------------|--5----------------|
--0----------------|------------------|--3----------------|
-------------------|------------------|-------------------|



-------------------------------|----------------------------------|
-------------------------------|----------------------------------|
-------------------------------|----------------------------------|
--------------7----7--7--7--7--|----------------------------------|
--------------7----7--7--7--7--|--2--2----2-----------------------|
--------------5----5--5--5--5--|--2--2----2----2--7--2----2----2--|
-------------------------------|--0--0----0----0-----0----0----0--|



----------------------------------|----------------------------------|
----------------------------------|----------------------------------|
----------------------------------|----------------------------------|
----------------------------------|----------------------------------|
--2--2----2-----------------------|--2--2----2-----------------------|
--2--2----2----2--5--2----2----2--|--2--2----2----2--3--2----2----2--|
--0--0----0----0-----0----0----0--|--0--0----0----0-----0----0----0--|



------------------------------------|----------------------------------|
------------------------------------|----------------------------------|
------------------------------------|----------------------------------|
------------------------------------|----------------------------------|
--2--2----2-------------------------|--2--2----2-----------------------|
--2--2----2----2--2--2--------------|--2--2----2----2--7--2----2----2--|
--0--0----0----0-----0----0--3-5-7--|--0--0----0----0-----0----0----0--|



----------------------------------|----------------------------------|
----------------------------------|----------------------------------|
----------------------------------|----------------------------------|
----------------------------------|----------------------------------|
--2--2----2-----------------------|--2--2----2-----------------------|
--2--2----2----2--5--2----2----2--|--2--2----2----2--3--2----2----2--|
--0--0----0----0-----0----0----0--|--0--0----0----0-----0----0----0--|



------------------------------------------|----------------------------------|
------------------------------------------|----------------------------------|
------------------------------------------|----------------------------------|
------------------4-5-4-2-------------2-4-|----------------------------------|
--2--2----2---------------5-4-2---2-4-----|--2--2----2-----------------------|
--2--2----2----2----------------5---------|--2--2----2----2--7--2----2----2--|
--0--0----0----0--------------------------|--0--0----0----0-----0----0----0--|



----------------------------------|----------------------------------|
----------------------------------|----------------------------------|
----------------------------------|----------------------------------|
----------------------------------|----------------------------------|
--2--2----2-----------------------|--2--2----2-----------------------|
--2--2----2----2--5--2----2----2--|--2--2----2----2--3--2----2----2--|
--0--0----0----0-----0----0----0--|--0--0----0----0-----0----0----0--|



------------------------------------|----------------------------------|
------------------------------------|----------------------------------|
------------------------------------|----------------------------------|
------------------------------------|----------------------------------|
--2--2----2-------------------------|--2--2----2-----------------------|
--2--2----2----2--2--2--------------|--2--2----2----2--7--2----2----2--|
--0--0----0----0-----0----0--3-5-7--|--0--0----0----0-----0----0----0--|



----------------------------------|----------------------------------|
----------------------------------|----------------------------------|
----------------------------------|----------------------------------|
----------------------------------|----------------------------------|
--2--2----2-----------------------|--2--2----2-----------------------|
--2--2----2----2--5--2----2----2--|--2--2----2----2--3--2----2----2--|
--0--0----0----0-----0----0----0--|--0--0----0----0-----0----0----0--|



---------------------------------|------||
---------------------------------|------||
---------------------------------|------||
------------------7----7----7----|------||
--2--2----2-------7----7----7----|------||
--2--2----2----2--5----5----5----|------||


Important: The song above is NOT stored on the Chordie server. The original song is hosted at www.xguitar.com. Chordie works as a search engine and provides on-the-fly formatting. Chordie does not index songs against artists'/composers' will. To remove this song please click here.

This song is displayed as text-only. Transposing and tuning is only available for chordpro-songs.

Login - add to songbook

Rating click stars to rate

Layout
Accuracy

SHARE PAGE  




You need to log in to post comments