Guitar Tabs, Chords and Lyrics


Puppies on Acid   Dream Theater

[4/4] Gtr I
             |---------6---------|

H. E T T T T T T
|-----------------------------------|
|-----------[4]---------------------|
|---------------[4]-----------------|
|-------------------[4]-------------|
|-----------------------[x]---------|
|---------------------------[x]-----|
|-------------------------------[x]-|



                                   [3/4]                                                                 
  PM------------------------------------------------------|

S S S S S S S S S S S S S S S S S S S S S S S S S S S S
|---------------------------------|---------------------------|
|---------------------------------|---------------------------|
|---------------------------------|---------------------------|
|-4-4-4---4-4-4---4-4-4---4-4-4---|-4-4-4---4-4-4---4-4-4-----|
|-2-2-2---2-2-2---2-2-2---2-2-2---|-2-2-2---2-2-2---2-2-2-----|
|-2-2-2---2-2-2---2-2-2---2-2-2---|-2-2-2---2-2-2---2-2-2-----|
|-0-0-0---0-0-0---0-0-0---0-0-0---|-0-0-0---0-0-0---0-0-0-----|



Q.=115 E=163
   1[B5]2/8                            4/4
    PM------------------------------------------------------------|

E E E E E E E E E E E E 4x S S S S S S S S S S S S S S S S 7x
||---------------------------||-||-----------------------------------||
||---------------------------||-||-----------------------------------||
||o-------------------------o||-||o---------------------------------o||
||--4-4-4---4-4-4---4-4-4----||-||--4-4-4---4-4-4---4-4-4---4-4-4----||
||o-2-2-2---2-2-2---2-2-2---o||-||o-2-2-2---2-2-2---2-2-2---2-2-2---o||
||--2-2-2---2-2-2---2-2-2----||-||--2-2-2---2-2-2---2-2-2---2-2-2----||
||--0-0-0---0-0-0---0-0-0----||-||--0-0-0---0-0-0---0-0-0---0-0-0----||



Double Time Q=172
[2/4]                  [9/16]                      [4/4]                                                           
  PM----------------------------------------------------|

S S S S S S S S S S S S S S S S S E E E E E E E E
|-----------------|-------------------||------------------|
|-----------------|-------------------||------------------|
|-----------------|-------------------||o-----------------|
|-4-4-4---4-4-4---|-4-4-4---4-4-4---4-||--4-4---4-4-4---4-|
|-2-2-2---2-2-2---|-2-2-2---2-2-2---2-||o-2-2---2-2-2---2-|
|-2-2-2---2-2-2---|-2-2-2---2-2-2---2-||--2-2---2-2-2---2-|
|-0-0-0---0-0-0---|-0-0-0---0-0-0---0-||--0-0---0-0-0---0-|
  PM------------------------------------------------|

E E E E E E E E E E E E E E E E E E E E E E E E 4x
|-----------------|-----------------|------------------||
|-----------------|-----------------|------------------||
|-----------------|-----------------|-----------------o||
|-4-4---4-4-4---4-|-4-4---4-4-4---4-|-4-4---4-4-4---4--||
|-2-2---2-2-2---2-|-2-2---2-2-2---2-|-2-2---2-2-2---2-o||
|-2-2---2-2-2---2-|-2-2---2-2-2---2-|-2-2---2-2-2---2--||
|-0-0---0-0-0---0-|-0-0---0-0-0---0-|-0-0---0-0-0---0--||



  [B5]Gtr II
~~~~~~~~~~~~~ ~~~~~~~~~~~~~
H E E E E E Q. +H +Q. E a E E E E +Q. +E +H
|--------------|-----------------|---------------------|------------------|
|--------------|-----------------|---------------------|------------------|
|--------------|-----------------|---------------------|------------------|
|------------4-|-----3----(3)----|-(3)s==(6)-----------|------------------|
|------2-1-2---|-----------------|-----------6p4-2-4-6-|-(6)---(6)-(6)----|
|--------------|-----------------|---------------------|------------------|
|--------------|-----------------|---------------------|------------------|

|
| Gtr I
| W +W W +W
|--------------|-----------------|---------------------|------------------|
|--------------|-----------------|---------------------|------------------|
|--------------|-----------------|---------------------|------------------|
|-4------------|-(4)-------------|--4------------------|-(4)--------------|
|-2------------|-(2)-------------|--2------------------|-(2)--------------|
|-2------------|-(2)-------------|--2------------------|-(2)--------------|
|-0------------|-(0)-------------|--0------------------|-(0)--------------|



~~~
+Q. +E E E E E E Q +E +H
|-------------------|-------------------------|
|-------------------|-------------------------|
|-------------------|-------------------------|
|-----------------4-|-----3--(3tr4)-(3tr4)----|
|-(6)---(6)-2p1h2---|-------------------------|
|-------------------|-------------------------|
|-------------------|-------------------------|

|
| W +W
|-------------------|-------------------------|
|-------------------|-------------------------|
|-------------------|-------------------------|
|--4----------------|-(4)---------------------|
|--2----------------|-(2)---------------------|
|--2----------------|-(2)---------------------|
|--0----------------|-(0)---------------------|



N.C.
  H]          [a]  [E]  [E]  [E]  [E]     [E]   [E]  [E]  [E]  [E]  [E]  [E]  [E]                                                          
|---------------------|--------------------|
|---------------------|--------------------|
|---------------------|--------------------|
|-(3tr4)--------------|--------------------|
|-----------8S6-4-6-8s|==6--4-0------------|
|---------------------|---------4-3-2-1-0--|
|---------------------|--------------------|

|
| W +Q E E E E E E
|---------------------|--------------------|
|---------------------|--------------------|
|---------------------|--------------------|
|--4------------------|-(4)----------------|
|--2------------------|-(2)----------------|
|--2------------------|-(2)---5-4-3-2-1-0--|
|--0------------------|-(0)----------------|



  [B5]                                            /1\                      \3
~~~~~~~~~~~~~
H E E E E E Q. +H +H a E E E E E E Q +H
|---------------|-------------------|----------------------|-----------------|
|---------------|-------------------|----------------------|-----------------|
|------------11-|-----10----(10)----|-(10)----6---8-6-8-10-|--8--6-----------|
|------9-8-9----|-------------------|----------------------|-------7--(7)----|
|---------------|-------------------|----------------------|-----------------|
|---------------|-------------------|----------------------|-----------------|
|-0-------------|-------------------|----------------------|-----------------|

|
| W +W W +W
|---------------|-------------------|----------------------|-----------------|
|---------------|-------------------|----------------------|-----------------|
|---------------|-------------------|----------------------|-----------------|
|-4-------------|-(4)---------------|---4------------------|-(4)-------------|
|-2-------------|-(2)---------------|---2------------------|-(2)-------------|
|-2-------------|-(2)---------------|---2------------------|-(2)-------------|
|-0-------------|-(0)---------------|---0------------------|-(0)-------------|



|
T
+H E E E E E Q +E +H +Q. E a E E Q
|-----------------|----------------------------------|--------------------------------|
|-----------------|----------------------------------|--------------------------------|
|--------------11-|-----10tr11--(10tr11)-(10tr11)----|-(10tr11)---(x)\-10S8-6-[8]b10r=|
|-(7)----9-8-9----|----------------------------------|------------(x)\----------------|
|-----------------|----------------------------------|--------------------------------|
|-----------------|----------------------------------|--------------------------------|
|-----------------|----------------------------------|--------------------------------|

|
| W +W W
|-----------------|----------------------------------|--------------------------------|
|-----------------|----------------------------------|--------------------------------|
|-----------------|----------------------------------|--------------------------------|
|--4--------------|-(4)------------------------------|---4----------------------------|
|--2--------------|-(2)------------------------------|---2----------------------------|
|--2--------------|-(2)------------------------------|---2----------------------------|
|--0--------------|-(0)------------------------------|---0----------------------------|



N.C. B5
7/8
~~~~~~~~~~~~~~~~~~~~~~~
E E E E E E E E +W +H. E
|----------------------||-------------------|-----------------*|
|----------------------||-------------------|-----------------*|
|-[8]-[6]--------------||-------------------|-----------------*|
|---------/7-6-5-4-3---||-------------------|-----------------*|
|--------------------7-||-(7)---------------|-(7)-------------*|
|----------------------||-------------------|-----------------*|
|----------------------||-------------------|-----------------*|

|
|                          PM-----------------------------|

| +W E E E E E E E E E E E E E Q
|----------------------||-------------------|-----------------*|
|----------------------||-------------------|-----------------*|
|----------------------||-------------------|-----------------*|
|-(4)------------------||--4--4---4-4-4---4-|--4--4---4-4-4---*|
|-(2)------------------||--2--2---2-2-2---2-|--2--2---2-2-2---*|
|-(2)------------------||--2--2---2-2-2---2-|--2--2---2-2-2---*|
|-(0)------------------||--0--0---0-0-0---0-|--0--0---0-0-0---*|



Duration Legend
---------------
W - whole; H - half; Q - quarter; E - 8th; S - 16th; T - 32nd; X - 64th; a - acciaccatura

+ - note tied to previous; . - note dotted; .. - note double dotted
Uncapitalized letters represent notes that are staccato (1/2 duration)
Irregular groupings are notated above the duration line
Duration letters will always appear directly above the note/fret number it represents the
duration for. Duration letters with no fret number below them represent rests. Multi-
bar rests are notated in the form Wxn, where n is the number of bars to rest for. Low
melody durations appear below the staff

Tablature Legend
----------------

h - hammer-on
p - pull-off
b - bend
pb - pre-bend
r - bend release (if no number after the r, then release immediately)
/\ - slide into or out of (from/to "nowhere")
s - legato slide
S - shift slide
- natural harmonic
[n]  - artificial harmonic
n(n) - tapped harmonic
~ - vibrato
tr - trill
T - tap
TP - trem. picking
PM - palm muting
\n/ - tremolo bar dip; n = amount to dip
\n - tremolo bar down
n/ - tremolo bar up
/n\ - tremolo bar inverted dip
= - hold bend; also acts as connecting device for hammers/pulls
<> - volume swell (louder/softer)
x - on rhythm slash represents muted slash
o - on rhythm slash represents single note slash

Misc Legend
-----------

| - bar
|| - double bar
||o - repeat start
o|| - repeat end
*| - double bar (ending)
: - bar (freetime)
$ - Segno
& - Coda
Tempo markers - = BPM(8/16=s8/s16), where s8 = swing 8ths, s16 = swing 16ths


***************************************************************************************
* Generated using Power Tab Editor by Brad Larsen - http://powertab.guitarnetwork.org *
***************************************************************************************

Important: The song above is NOT stored on the Chordie server. The original song is hosted at www.xguitar.com. Chordie works as a search engine and provides on-the-fly formatting. Chordie does not index songs against artists'/composers' will. To remove this song please click here.

Text color:
Chord color:
Chord grids: 
Font size:    
Page size: 

B5 E
variations - click chord images

Login - add to songbook

Transpose chords

Tuning

Rating click stars to rate

Layout
Accuracy

SHARE PAGE  




You need to log in to post comments