Guitar Tabs, Chords and Lyrics


Scene Four: Beyond This Life   Dream Theater

[5/4] Wx4
|--------|
|--------|
|--------|
|--------|
|--------|

   [5/4] Gtr I
    [E]  [E]  [E]  [E]  [E]  [E]  [E]  [E]  [E]  [E]    [E]  [E]  [E]  [E]  [E]  [E]  [E]  [E]  [E]  [E]    [E]  [E]  [E]  [E]  [E]  [E]  [E]  [E]  [E]  [E]                             
||----------------------|---------------------|----------------------|
||o---------------------|---------------------|----------------------|
||----------------------|---------------------|----------------------|
||--------2-2-2---------|-------2-2-2---------|-------2-2-2----------|
||o-4-4-4-------3-3-2-2-|-4-4-4-------3-3-2-2-|-4-4-4-------3-3-2-2--|
||----------------------|---------------------|----------------------|

4/4 7/8
E E E E E E E E E E E E E E E E E E E E E E E E E 3x
|----------------------||-||------------------|----------------||
|---------------------o||-||o-----------------|---------------o||
|----------------------||-||--------1-------0-|----------------||
|-3-3-3-2-2-2-1-1-0-0--||-||------------------|-------3-2------||
|---------------------o||-||o-4-2-4---4-2-4---|-4-2-4-----4-2-o||
|----------------------||-||------------------|----------------||

[6/4] E E E E E E E E E E E E  [4/4] E E E S S E E E E    [5/4] E E E E E E E E E E
|-------------------------|-------------------||-----------------------|
|-------------------------|-----1-------------||o----------------------|
|-------1-------3-------4-|-3-4---4-3-0-3-----||-----------------------|
|-----------------2-1-2---|---------------2-1-||--------2-2-2----------|
|-4-2-4---4-2-4-----------|-------------------||o-4-4-4-------3-3-2-2--|
|-------------------------|-------------------||-----------------------|

  [E]  [E]  [E]  [E]  [E]  [E]  [E]  [E]  [E]  [E]    [E]  [E]  [E]  [E]  [E]  [E]  [E]  [E]  [E]  [E]    [E]  [E]  [E]  [E]  [E]  [E]  [E]  [E]  [E]  [E]                               
|---------------------|---------------------|----------------------||
|---------------------|---------------------|---------------------o||
|---------------------|---------------------|----------------------||
|-------2-2-2---------|-------2-2-2---------|-3-3-3-2-2-2-1-1-0-0--||
|-4-4-4-------3-3-2-2-|-4-4-4-------3-3-2-2-|---------------------o||
|---------------------|---------------------|----------------------||

Q. Q. Q Q 7x Q. Q. Q Q Q. Q. Q Q 7x
||-------------------||-----------------||-------------------||
||o-----------------o||-----------------||o-----------------o||
||-------------------||-----------------||-------------------||
||-------2-----------||-3----2----1--0--||-------2-----------||
||o-4---------3--2--o||-----------------||o-4---------3--2--o||
||-------------------||-----------------||-------------------||

E E E E E E E E E E E E E E E E E E E E E E E E E E E E Q
|---------------------|---------------------|--------------------|
|---------------------|---------------------|--------------------|
|---------------------|---------------------|--------------------|
|-3-3-3-2-2-2-1-1-0-0-|-4-4-4-4-4-4-4-4-4-4-|--------------------|
|---------------------|---------------------|-0-0-0-0-0-0-0-0-2--|
|---------------------|---------------------|--------------------|

Q. Q. Q Q Q. Q. Q Q E E E E E E E E E E
|-----------------|-----------------|---------------------|
|-----------------|-----------------|---------------------|
|-----------------|-----------------|---------------------|
|------2----------|------2----------|-4-4-4-4-4-4-4-4-4-4-|
|-4---------3--2--|-4---------3--2--|---------------------|
|-----------------|-----------------|---------------------|

  [E]  [E]  [E]  [E]  [E]  [E]  [E]  [E]  [E]  [E]    [E]  [E]  [E]  [E]  [E]  [E]  [E]  [E]  [E]  [E]    [E]  [E]  [E]  [E]  [E]  [E]  [E]  [E]  [E]  [E]                               
|---------------------|---------------------|---------------------|
|---------------------|---------------------|---------------------|
|---------------------|-1-1-1-1-1-1-1-1-1-1-|---------------------|
|---------------------|---------------------|-0-0-0-0-0-0-0-0-0-0-|
|-0-0-0-0-0-0-0-0-0-0-|---------------------|---------------------|
|---------------------|---------------------|---------------------|

4/4 7/8 6/4
E E E E E E E E E E E E E E E 3x E E E E E E E E E E E E
||------------------|----------------||-------------------------|
||o-----------------|---------------o||-------------------------|
||--------1-------0-|----------------||-------1-------3-------4-|
||------------------|-------3-2------||-----------------2-1-2---|
||o-4-2-4---4-2-4---|-4-2-4-----4-2-o||-4-2-4---4-2-4-----------|
||------------------|----------------||-------------------------|

[4/4] E E E S S E E E E    [5/4] Q.   Q.   Q  Q    Q.   Q.   Q  Q
|-------------------||------------------|-----------------|
|-----1-------------||o-----------------|-----------------|
|-3-4---4-3-0-3-----||------------------|-----------------|
|---------------2-1-||-------2----------|------2----------|
|-------------------||o-4---------3--2--|-4---------3--2--|
|-------------------||------------------|-----------------|

Q. Q. Q Q Q. Q. Q Q 3x Q. Q. Q Q 3x
|-----------------|------------------||-||-------------------||
|-----------------|-----------------o||-||o-----------------o||
|-----------------|------------------||-||-------------------||
|------2----------|-3----2----1--0---||-||-------2-----------||
|-4---------3--2--|-----------------o||-||o-4---------3--2--o||
|-----------------|------------------||-||-------------------||

E E E E E E E E E E E E E E E E E E E E E E E E E E E E Q
|---------------------|---------------------|--------------------|
|---------------------|---------------------|--------------------|
|---------------------|---------------------|--------------------|
|-3-3-3-2-2-2-1-1-0-0-|-4-4-4-4-4-4-4-4-4-4-|--------------------|
|---------------------|---------------------|-0-0-0-0-0-0-0-0-2--|
|---------------------|---------------------|--------------------|

Q. Q. Q Q Q. Q. Q Q E E E E E E E E E E
|-----------------|-----------------|---------------------|
|-----------------|-----------------|---------------------|
|-----------------|-----------------|---------------------|
|------2----------|------2----------|-4-4-4-4-4-4-4-4-4-4-|
|-4---------3--2--|-4---------3--2--|---------------------|
|-----------------|-----------------|---------------------|

                                    [6/4]  [E]  [E]  [E]  [E]  [E]  [E]  [E]  [E]  [E]  [E]    [E]  [E]  [E]  [E]  [E]  [E]  [E]  [E]  [E]  [E]    [E]  [E]  [E]  [E]  [E]  [E]  [E]  [E]  [E]  [E]  [E]  [E]                          
|---------------------|---------------------|-------------------------|
|---------------------|---------------------|-------------------------|
|---------------------|-1-1-1-1-1-1-1-1-1-1-|-------------------------|
|---------------------|---------------------|-0-0-0-0-0-0-0-0-0-0-0-0-|
|-0-0-0-0-0-0-0-0-0-0-|---------------------|-------------------------|
|---------------------|---------------------|-------------------------|

Q.=60
5/4 6/8
E E E E E E E E E E E E E E E E E E E E Q. Q.
|---------------------|---------------------|-----------|
|---------------------|---------------------|-----------|
|---------------------|---------------------|-----------|
|-4-4-4-4-4-4-4-4-4-4-|---------------------|-6----8----|
|---------------------|-0-0-0-0-0-0-0-0-0-0-|-----------|
|---------------------|---------------------|-----------|

Q. Q. H. +H. +H. +H.
|------------|---------|----------|----------|--------|
|------------|---------|----------|----------|--------|
|------------|---------|----------|----------|--------|
|-10---------|---------|----------|----------|--------|
|-------9\---|---------|----------|----------|--------|
|------------|-3-------|-(3)------|-(3)------|-(3)----|

H. H. H. H.
|---------|---------|---------|--------|
|---------|---------|---------|--------|
|---------|---------|---------|--------|
|-5-------|-2-------|-1-------|-/7-----|
|---------|---------|---------|--------|
|---------|---------|---------|--------|

H. H. H. Q. Q.
|---------|---------|---------|------------|
|---------|---------|---------|------------|
|---------|---------|---------|-5----6-----|
|-5-------|-2-------|---------|------------|
|---------|---------|-4-------|------------|
|---------|---------|---------|------------|

H. H. H. H.
|---------|---------|---------|-------|
|---------|---------|---------|-------|
|---------|---------|---------|-------|
|-5-------|-2-------|-1-------|-7-----|
|---------|---------|---------|-------|
|---------|---------|---------|-------|

Q=172
[5/4] Wx7            E E E E E E E E E E     E E E E E E E E E E  3x
|--------------|---------------------||-----------------------||
|--------------|---------------------||o---------------------o||
|--------------|---------------------||-----------------------||
|--------------|-3-3-3-2-2-2-1-1-0-0-||--------2-2-2----------||
|--------------|---------------------||o-4-4-4-------3-3-2-2-o||
|--------------|---------------------||-----------------------||

E E E E E E E E E E E E E E E E E E E E 3x E E E E E E E E E E
|---------------------||-----------------------||---------------------|
|---------------------||o---------------------o||---------------------|
|---------------------||-----------------------||---------------------|
|-3-3-3-2-2-2-1-1-0-0-||--------2-2-2----------||-3-3-3-2-2-2-1-1-0-0-|
|---------------------||o-4-4-4-------3-3-2-2-o||---------------------|
|---------------------||-----------------------||---------------------|

Q=100
   [4/4]                                               |-3-|
S S S S S S S S S S S S S S S S S S S S S S S S S S S S S S S S S
||----------------------------------|------------------------------------|
||o---------------------------------|------------------------------------|
||----------------------------------|-----------6-4---------------4-3----|
||--------2---4-2-------------------|-------2-------6-4---4-----4-----4--|
||o-2h4-4---4-----4-2h4-4-4-2h4-4-4-|-2-4-4---4---------1---1-2----------|
||----------------------------------|------------------------------------|

|-3-|
S S S S S S S S S S S S S S S S S S S S S S S S S E. S +E E
|---------------------------------|-------------------------------||
|---------------------------------|------------------------------o||
|---------------------------------|-------------------------------||
|-------2---4-2-------------------|-------2---4-------2--4-(4)----||
|-2h4-4---4-----4-2h4-4-4-2h4-4-4-|-2-4-4---4---2-3-4----------2-o||
|---------------------------------|-------------------------------||

[3/4] S S S S S S S S S S S S   S S S S S S S S S S S S
|-------------------1-3-4-|-------------------------|
|-----------------1-------|-1---1-3-4-------1-------|
|-------1-2-1-2-4---------|---2-------1-2-4---2---1-|
|-4-3-4-------------------|---------------------4---|
|-------------------------|-------------------------|
|-------------------------|-------------------------|

[4/4] |-3-|                             |-3-|
S S S S S S S S S S S S S S E S S S S S S S S S S S S S S S E.
|---------------------------------|--------------------------------|
|---------------------------------|--------------------------------|
|---------------------------------|--------------------------------|
|-------2---2-4-5-6-2-------------|-------2---2-4-5-6-2------------|
|-2-3-4---4-----------4---4---4-4-|-2-3-4---4-----------4---4---4--|
|---------------------------------|--------------------------------|

[3/4] S S S S S S S S S S S S   S S S S S S S S S S S S
|-------------------1-3-4-|-------------------------|
|-----------------1-------|-1---1-3-4-------1-------|
|-------1-2-1-2-4---------|---2-------1-2-4---2---1-|
|-4-3-4-------------------|---------------------4---|
|-------------------------|-------------------------|
|-------------------------|-------------------------|

  S S S S S S S S S S S S  [4/4] S S S S S S S S S T T S S S S S S
|-------------------0-----|------------------------------------|
|-0---0-2-0---3-0-----3-2-|---1-------1------------------------|
|---1-------1-----1-------|-1-----1-2---1-2-4-2-1---2---2-1----|
|-------------------------|-----4-----------------4---0--------|
|-------------------------|---------------------------------4--|
|-------------------------|------------------------------------|

[5/4] S S S S S S S S S S S S S S S S S S S S
|-----------------------------------------|
|-----------------------------------------|
|-----------------------------------------|
|-------2-------4---3---2-----------------|
|-2-3-4---4-3-2---2---4---4-3-2-3-4-4-4-4-|
|-----------------------------------------|

S S S S S S S S S S S S S S S S T T T T S S
|---------------------------------------------|
|---------------------------------------------|
|---------------------------------------------|
|-------2-------4---3---2---------------------|
|-2-3-4---4-3-2---2---4---4-3-2-3-0-0-0---0-0-|
|---------------------------------------------|

  S S S S S S S S S S S S S S S S S S S S  [4/4] S S S S S S S S S S S S S S S S
|-----------------------------------------|----------------------------------|
|-----------------------------------------|----------------------------------|
|-----------------------------------------|----------------------------------|
|-------2-------4---3---2-----------------|-------2---------2-4-4-4-2-4-4-4--|
|-2-3-4---4-3-2---2---4---4-3-2-3-4-4-4-4-|-2-3-4---4-3-2-3------------------|
|-----------------------------------------|----------------------------------|

[5/4] S S S S S S S S S S S S S S S S S S S S
|-----------------------------------------|
|-----------------------------------------|
|-----------------------------------------|
|-------2-------4---3---2-----------------|
|-2-3-4---4-3-2---2---4---4-3-2-3-4-4-4-4-|
|-----------------------------------------|

S S S S S S S S S S S S S S S S T T T T T T T T
|--------------------------------------------------|
|--------------------------------------------------|
|--------------------------------------------------|
|-------2-------4---3---2--------------------------|
|-2-3-4---4-3-2---2---4---4-3-2-3-0-0-0---0-0-0----|
|--------------------------------------------------|

  S S S S S S S S S S S S S S S S S S S S  [4/4] S S S S S S S S S S S S S S S S
|-----------------------------------------|----------------------------------|
|-----------------------------------------|----------------------------------|
|-----------------------------------------|----------------------------------|
|-------2-------4---3---2-----------------|-------2---------2h4-4-4-2h4-4-4--|
|-2-3-4---4-3-2---2---4---4-3-2-3-4-4-4-4-|-2-3-4---4-3-2-3------------------|
|-----------------------------------------|----------------------------------|

[15/16] S S S S S S S S S S S S S S S   S S S S S S S S S S S S S S S
|-------------------------------|-------------------------------|
|-------------------------------|-------------------------------|
|-------1-------0---------------|-------1-------0---------------|
|-----------------------3-2-----|-----------------------3-2-----|
|-4-2-4---4-2-4---4-2-4-----4-2-|-4-2-4---4-2-4---4-2-4-----4-2-|
|-------------------------------|-------------------------------|

  S S S S S S S S S S S S S S S  [21/16] S S S S S S S S S S S S S S S T T S S S S S
|-------------------------------|---------------------------------------------|
|-------------------------------|-----------------------------1---------------|
|-------1-------0---------------|-------1-------3-------4-3-4---4-3-0-3-------|
|-----------------------3-2-----|-----------------2-1-2-----------------2-1-2-|
|-4-2-4---4-2-4---4-2-4-----4-2-|-4-2-4---4-2-4-------------------------------|
|-------------------------------|---------------------------------------------|

[3/4] S S S S S S S S S S S S   S S S S S S S S S S S S
|-------------------1-3-4-|-------------------------|
|-----------------1-------|-1---1-3-4-------1-------|
|-------1-2-1-2-4---------|---2-------1-2-4---2---1-|
|-4-3-4-------------------|---------------------4---|
|-------------------------|-------------------------|
|-------------------------|-------------------------|

[15/16] S S S S S S S S S S S S S S S   S S S S S S S S S S S S S S S
|-------------------------------|-------------------------------|
|-------------------------------|-------------------------------|
|-------1-------0---------------|-------1-------0---------------|
|-----------------------3-2-----|-----------------------3-2-----|
|-4-2-4---4-2-4---4-2-4-----4-2-|-4-2-4---4-2-4---4-2-4-----4-2-|
|-------------------------------|-------------------------------|

[3/4] S S S S S S S S S S S S   S S S S S S S S S S S S
|-------------------1-3-4-|-------------------------|
|-----------------1-------|-1---1-3-4-------1-------|
|-------1-2-1-2-4---------|---2-------1-2-4---2---1-|
|-4-3-4-------------------|---------------------4---|
|-------------------------|-------------------------|
|-------------------------|-------------------------|

Q=140
[3/4]                                  [4/4]                                                           
                                    |-3-| |-3-| |-3-|

S S S S S S S S T T T T T T T T E E E E E E E E E Q
|---------------------------0-----|-----------------------|
|-0---0-2-0---3-0-----0-2-3---3-2-|-------------0-0-0-----|
|---1-------1-----1-3-------------|-1-1-1-3-3-3-----------|
|---------------------------------|-----------------------|
|---------------------------------|-------------------9\--|
|---------------------------------|-----------------------|

Q.=60
6/8
H. +H. +H. +H.
|---------|----------|----------|--------|
|---------|----------|----------|--------|
|---------|----------|----------|--------|
|---------|----------|----------|--------|
|---------|----------|----------|--------|
|-3-------|-(3)------|-(3)------|-(3)----|

H. H. H. H.
|---------|---------|---------|-------|
|---------|---------|---------|-------|
|---------|---------|---------|-------|
|-5-------|-2-------|-1-------|-------|
|---------|---------|---------|-0-----|
|---------|---------|---------|-------|

H. H. H. Q. Q.
|---------|---------|---------|------------|
|---------|---------|---------|------------|
|---------|---------|---------|-5----6-----|
|-5-------|-2-------|---------|------------|
|---------|---------|-4-------|------------|
|---------|---------|---------|------------|

H. H. H. Q. Q.
|---------|---------|---------|------------|
|---------|---------|---------|------------|
|---------|---------|---------|------------|
|-5-------|-2-------|-1-------|------0-----|
|---------|---------|---------|-0----------|
|---------|---------|---------|------------|

H. H. H. H.
||----------|----------|----------|-------|
||o---------|----------|----------|-------|
||--0-------|-/9-------|-\5-------|-------|
||----------|----------|----------|-7\----|
||o---------|----------|----------|-------|
||----------|----------|----------|-------|

Q. Q. H. H. H.
|------------|---------|---------|--------||
|------/7----|---------|---------|-------o||
|-0----------|-6-------|-5-------|-7------||
|------------|---------|---------|--------||
|------------|---------|---------|-------o||
|------------|---------|---------|--------||

Q=172
5/4 12/8
Wx7 E E E E E E E E E E E E E E E E E E E E E E E E
|--------------|-------------------------|--------------------------|
|--------------|-------------------------|--------------------------|
|--------------|-------------------------|--------------------------|
|--------------|-3-3-3-2-2-2-1-1-1-0-0-0-|-------2-2-2--------------|
|--------------|-------------------------|-4-4-4-------3-3-3-2-2-2--|
|--------------|-------------------------|--------------------------|

  [E]  [E]  [E]  [E]  [E]  [E]  [E]  [E]  [E]  [E]  [E]  [E]                                                                      
|-------------------------|
|-------------------------|
|-------------------------|
|-------2-2-2-------------|
|-4-4-4-------3-3-3-2-2-2-|
|-------------------------|

E E E E E E S S E E E E E E E E E E E E E E E E E
|---------------------------|-------------------------|
|---------------------------|-------------------------|
|---------------------------|-------------------------|
|-------2-2-2---------------|-3-3-3-2-2-2-1-1-1-0-0-0-|
|-4-4-4-------3-3-3-3-2-2-2-|-------------------------|
|---------------------------|-------------------------|

  [E]  [E]  [E]  [E]  [E]  [E]  [E]  [E]  [E]  [E]  [E]  [E]    [E]  [E]  [E]  [E]  [E]  [E]  [E]  [E]  [E]  [E]  [E]  [E]    [E]  [E]  [E]  [E]  [E]  [E]  [E]  [E]  [E]  [E]  [E]  [E]                  
|-------------------------|-------------------------|--------------------------|
|-------------------------|-------------------------|--------------------------|
|-------------------------|-------------------------|--------------------------|
|-------2-2-2-------------|-------2-2-2-------------|-------2-2-2--------------|
|-4-4-4-------3-3-3-2-2-2-|-4-4-4-------3-3-3-2-2-2-|-4-4-4-------3-3-3-2-2-2--|
|-------------------------|-------------------------|--------------------------|

E E E E E E E E E E E E Q. Q. Q. Q E 7x Q. Q. Q. Q.
|-------------------------||-----------------------||----------------------|
|-------------------------||o---------------------o||----------------------|
|-------------------------||-----------------------||----------------------|
|-3-3-3-2-2-2-1-1-1-0-0-0-||-------2---------------||------2---------------|
|-------------------------||o-4---------3----2--0-o||-4---------3----2-----|
|-------------------------||-----------------------||----------------------|

Q. Q. Q. Q E 3x Q. Q. Q. Q. Q. Q. Q. Q E 4x
||-----------------------||---------------------||-----------------------||
||o---------------------o||---------------------||o---------------------o||
||-------2---------------||------2--------------||-----------------------||
||--4---------3----2-----||-4-------------------||-------2---------------||
||o-------------------0-o||-----------2----3----||o-4---------3----2--0-o||
||-----------------------||---------------------||-----------------------||

Q. Q. Q. Q. Q. Q. Q. Q. Q. Q. Q. Q E
|---------------------|---------------------||------------------------||
|---------------------|---------------------||o----------------------o||
|---------------------|---------------------||------------------------||
|-1----1----1----1----|-0----0--------------||-------2----------------||
|---------------------|-----------2----3----||o-4---------3----2--0--o||
|---------------------|---------------------||------------------------||

Q. Q. Q. Q. Q. Q. Q. Q.
|---------------------|---------------------|
|---------------------|---------------------|
|---------------------|---------------------|
|-1----1----1----1----|-2----2--------------|
|---------------------|-----------2----3----|
|---------------------|---------------------|

Q=95
   [4/4] |-3-|                               |-3-|
S S S S S S S S S S S S S S E S 3x S S S S S S S S S S S S S S E.
||-----------------------------------||---------------------------------|
||o---------------------------------o||---------------------------------|
||-----------------------------------||---------------------------------|
||--------2---2-4-5-6-2--------------||-------2---2-4-5-6-2-------------|
||o-2-3-4---4-----------4---4---4-4-o||-2-3-4---4-----------4---4---4---|
||-----------------------------------||---------------------------------|

|-3-| |-3-|
S S S S S S S S S S S S S S E S 7x S S S S S S S S S S S S S S E.
||-----------------------------------||--------------------------------|
||o---------------------------------o||--------------------------------|
||-----------------------------------||--------------------------------|
||--------5---5-7-8-9-5--------------||-------5---5-7-8-9-5------------|
||o-5-6-7---7-----------7---7---7-7-o||-5-6-7---7-----------7---7---7--|
||-----------------------------------||--------------------------------|

|-3-| |-3-|
S S S S S S S S S S S S S S E S 3x S S S S S S S S S S S S S S E.
||-----------------------------------||--------------------------------|
||o---------------------------------o||--------------------------------|
||--------5---5-7-8-9-5--------------||-------5---5-7-8-9-5------------|
||--5-6-7---7-----------7---7---7-7--||-5-6-7---7-----------7---7---7--|
||o---------------------------------o||--------------------------------|
||-----------------------------------||--------------------------------|

|-3-| |-3-|
S S S S S S S S S S S S S S E S 3x S S S S S S S S S S S S S S E.
||-----------------------------------||--------------------------------|
||o---------------------------------o||--------------------------------|
||-----------------------------------||--------------------------------|
||--------5---5-7-8-9-5--------------||-------5---5-7-8-9-5------------|
||o-5-6-7---7-----------7---7---7-7-o||-5-6-7---7-----------7---7---7--|
||-----------------------------------||--------------------------------|

E S S S S S S +S S S S +S S E Q Q Q Q
|---------------------------------|-------------|
|-----------4-6-(6)-----4-(4)-6-4-|-------------|
|-------4-6---------6-6-----------|-------------|
|-4-4-7---------------------------|-3--3--------|
|---------------------------------|-------5--6--|
|---------------------------------|-------------|

|-3-| |-3-|
S S S S S S S S S S S S S S E S S S S S S S S S S S S S S S E.
|---------------------------------|--------------------------------|
|---------------------------------|--------------------------------|
|---------------------------------|--------------------------------|
|-------5---5-7-8-9-5-------------|-------5---5-7-8-9-5------------|
|-5-6-7---7-----------7---7---7-7-|-5-6-7---7-----------7---7---7--|
|---------------------------------|--------------------------------|

E S S S S S S +S S S S +S S E Q Q Q Q
|-------------------------------4-|-------------|
|-----------4-6-(6)-----4-(4)-6---|-------------|
|-------4-6---------6-6-----------|-------------|
|-4-4-7---------------------------|-5--5--------|
|---------------------------------|-------5--6--|
|---------------------------------|-------------|

Q=100
9/8
S S S S E S S S S E E S S E S S S S E S S S S E E E
||--------------------------------|--------------------------------||
||o-------------------------------|-------------------------------o||
||----------------------------7---|-9------------------------------||
||-------7-----------7------------|--------7-----------7-----------||
||o-7-10---7-10-7-10---7-10-7-----|---7-10---7-10-7-10---7-10-7---o||
||--------------------------------|--------------------------------||

[17/4] S S S S E S S S S E E S S E S S S S E S S S S E E
|---------------------------------------------------
|---------------------------------------------------
|---------------------------------------------------
|-----------------------3---5-----------------------
|-----3---------3-----------------3---------3-------
|-3-6---3-6-3-6---3-6-3-------3-6---3-6-3-6---3-6-3-

E S S S S E S S S S E E S S E S S S S E S S S S E E E
-------------------------------------------------------|
-------------------------------------------------------|
-------------------------------------------------------|
-------------------------3---5-------------------------|
-------3---------3-----------------3---------3---------|
---3-6---3-6-3-6---3-6-3-------3-6---3-6-3-6---3-6-3---|

S S S S E S S S S E E S S E S S S S E S S S S E E
|---------------------------------------------------
|---------------------------------------------------
|---------------------------------------------------
|-----------------------3---5-----------------------
|-----3---------3-----------------3---------3-------
|-3-6---3-6-3-6---3-6-3-------3-6---3-6-3-6---3-6-3-

E S S S S E S S S S E E S S E S S S S E S S S S E E E
--------------------------------------------------------
--------------------------------------------------------
--------------------------------------------------------
-------------------------3---5--------------------------
-------3---------3-----------------3---------3----------
---3-6---3-6-3-6---3-6-3-------3-6---3-6-3-6---3-6-3----

4/4 9/8
S S S S E S S S S E E S S E S S S S E S S S S E E E 4x
||----------------------------|----------------------------||
||o---------------------------|---------------------------o||
||----------------------------|----------------------------||
||------------------------6---|-8--------------------------||
||o-----6---------6-----------|-------6---------6---------o||
||--6-9---6-9-6-9---6-9-6-----|---6-9---6-9-6-9---6-9-6----||

[4/4] S S S S E S S S S S S S S S S   S S S S E S S S S S S S S E
|-------------------------------|------------------------------|
|-------------------------------|------------------------------|
|-------------------------------|------------------------------|
|-------------------------------|---------------------------2--|
|-2h4-4-4-4-2h4-4-4-4-4-2h4-4-4-|-2h4-4-4-4-2h4-4-4-4-4-2h4----|
|-------------------------------|------------------------------|

S S S S E S S S S S S S S S S S S S S E S S S S E S S E
|-------------------------------|---------------------------|
|-------------------------------|---------------------------|
|-------------------------------|-------------------------4-|
|-------------------------------|---------------------4-6---|
|-2h4-4-4-4-2h4-4-4-4-4-2h4-4-4-|-2h4-4-4-4-2h4-4-4-2-------|
|-------------------------------|---------------------------|

S S S S E S S S S S S S S S S S S S S E S S S S S S S S E
|-------------------------------|-----------------------------|
|-------------------------------|-----------------------------|
|-------------------------------|-----------------------------|
|-------------------------------|---------------------------2-|
|-2h4-4-4-4-2h4-4-4-4-4-2h4-4-4-|-2h4-4-4-4-2h4-4-4-4-4-2h4---|
|-------------------------------|-----------------------------|

|-3-| |-3-|
S S S S E S S S S S S S S S S E S S S S S S S S S S S S S E.
|-------------------------------|---------------------------------|
|-------------------------------|-4-------------------------------|
|-------------------------------|---6-4---6-6-4-------------------|
|-------------------------------|-------6-------6-4---4-5-6-------|
|-2h4-4-4-4-2h4-4-4-4-4-2h4-4-4-|-------------------7-------7-----|
|-------------------------------|-----------------------------7---|

|-3-|
S S S S E S S S S S S S E. S S S S E S S E E S S S E
||-----------------------------|---------------------------|
||o----------------------------|---------------4-----------|
||------------------------4-6--|-----------------6-4-------|
||------4---------4-5-6--------|-----4---------------6-4---|
||o-4-7---4-7-4-7-------4------|-4-7---4-7-4-------------7-|
||-----------------------------|---------------------------|

|-3-| |-3-|
S S S S E S S S S S S S E. E S S S S S S S S S S S S S E.
|----------------------------|---------------------------------||
|----------------------------|-4------------------------------o||
|-----------------------4-6--|---6-4---6-6-4-------------------||
|-----4---------4-5-6--------|-------6-------6-4---4-5-6-------||
|-4-7---4-7-4-7-------4------|-------------------7-------7----o||
|----------------------------|-----------------------------7---||

S S S S S S S S S S S S S S S S S S S S S S S S S S S S Q
|---------------------------------|-----------------------------|
|---------------------------------|-----------------------------|
|---------------------------------|-----------------------------|
|-4-4-4-4-4-4-4-4-4-4-4-4-4-4-4-4-|-----------------------------|
|---------------------------------|-0-0-0-0-0-0-0-0-0-0-0-0-2---|
|---------------------------------|-----------------------------|

|-3-| |-3-|
S S S S E S S S S S S S E. E S S S S S S S S S S S S S E.
|----------------------------|--------------------------------|
|----------------------------|-4------------------------------|
|-----------------------4-6--|---6-4---6-6-4------------------|
|-----4---------4-5-6--------|-------6-------6-4---4-5-6------|
|-4-7---4-7-4-7-------4------|-------------------7-------7----|
|----------------------------|-----------------------------7--|

S S S S S S S S S S S S S S S S S S S S S S S S S S S S S S S S
|---------------------------------|---------------------------------|
|---------------------------------|---------------------------------|
|---------------------------------|---------------------------------|
|-4-4-4-4-4-4-4-4-4-4-4-4-4-4-4-4-|---------------------------------|
|---------------------------------|-0-0-0-0-0-0-0-0-0-0-0-0-0-0-0-0-|
|---------------------------------|---------------------------------|

6/8
Q. Q. Q. Q. Q. Q. Q. Q.
|-----------|-----------|-------------|-----------|
|-----------|-----------|-------------|-----------|
|-----------|-----------|-------------|-----------|
|-6----6----|-8----8----|-10----10----|-----------|
|-----------|-----------|-------------|-9----9----|
|-----------|-----------|-------------|-----------|

Q. Q. H. H. Q. Q.
|-----------|---------|---------|------------|
|-----------|---------|---------|------------|
|-----------|---------|---------|------------|
|------5----|-2-------|---------|------------|
|-----------|---------|-4-------|-3----4-----|
|-3---------|---------|---------|------------|

H. H. H. H.
|---------|---------|---------|-------|
|---------|---------|---------|-------|
|---------|---------|---------|-------|
|-5-------|-2-------|-1-------|-------|
|---------|---------|---------|-0-----|
|---------|---------|---------|-------|

H. H. H. Q. Q.
|---------|---------|---------|------------|
|---------|---------|---------|------------|
|---------|---------|---------|-5----6-----|
|-5-------|-2-------|---------|------------|
|---------|---------|-4-------|------------|
|---------|---------|---------|------------|

H. H. H. Q. Q.
|---------|---------|---------|------------|
|---------|---------|---------|------------|
|---------|---------|---------|------------|
|-5-------|-2-------|-1-------|------0-----|
|---------|---------|---------|-0----------|
|---------|---------|---------|------------|

H. H. H. H.
||----------|----------|----------|-------|
||o---------|----------|----------|-------|
||--0-------|-/9-------|-\5-------|-------|
||----------|----------|----------|-7\----|
||o---------|----------|----------|-------|
||----------|----------|----------|-------|

Q. Q. H. H. H.
|------------|---------|---------|--------||
|------/7----|---------|---------|-------o||
|-0----------|-6-------|-5-------|-7------||
|------------|---------|---------|--------||
|------------|---------|---------|-------o||
|------------|---------|---------|--------||

H. +H. +H. +H.
|---------|----------|----------|--------*|
|---------|----------|----------|--------*|
|---------|----------|----------|--------*|
|---------|----------|----------|--------*|
|---------|----------|----------|--------*|
|-3-------|-(3)------|-(3)------|-(3)----*|

Duration Legend
---------------
W - whole; H - half; Q - quarter; E - 8th; S - 16th; T - 32nd; X - 64th; a - acciaccatura

+ - note tied to previous; . - note dotted; .. - note double dotted
Uncapitalized letters represent notes that are staccato (1/2 duration)
Irregular groupings are notated above the duration line
Duration letters will always appear directly above the note/fret number it represents the
duration for. Duration letters with no fret number below them represent rests. Multi-
bar rests are notated in the form Wxn, where n is the number of bars to rest for. Low
melody durations appear below the staff
Tablature Legend
----------------

h - hammer-on
p - pull-off
b - bend
pb - pre-bend
r - bend release (if no number after the r, then release immediately)
/\ - slide into or out of (from/to "nowhere")
s - legato slide
S - shift slide
- natural harmonic
(n) - artificial harmonic
n(n) - tapped harmonic
~ - vibrato
tr - trill
T - tap
TP - trem. picking
PM - palm muting
\n/ - tremolo bar dip; n = amount to dip
\n - tremolo bar down
n/ - tremolo bar up
/n\ - tremolo bar inverted dip
= - hold bend; also acts as connecting device for hammers/pulls
<> - volume swell (louder/softer)
x - on rhythm slash represents muted slash
o - on rhythm slash represents single note slash
Misc Legend
-----------

| - bar
|| - double bar
||o - repeat start
o|| - repeat end
*| - double bar (ending)
: - bar (freetime)
$ - Segno
& - Coda
Tempo markers - = BPM(8/16=s8/s16), where s8 = swing 8ths, s16 = swing 16ths
*****************************************************************************************
* Generated using Power Tab Editor by B.S. Larsen - http://www.crosswinds.net/~powertab *
*****************************************************************************************

Important: The song above is NOT stored on the Chordie server. The original song is hosted at www.xguitar.com. Chordie works as a search engine and provides on-the-fly formatting. Chordie does not index songs against artists'/composers' will. To remove this song please click here.

Text color:
Chord color:
Chord grids: 
Font size:    
Page size: 

E
variations - click chord images

Login - add to songbook

Transpose chords

Tuning

Rating click stars to rate

Layout
Accuracy

SHARE PAGE  




You need to log in to post comments