Guitar Tabs, Chords and Lyrics


Overture    Dream Theater



OVERTURE
                          As recorded by Dream Theater
              (From the 2002 Album SIX DEGREES OF INNER TURBULENCE)

Music by John Myung, John Petrucci, Mike Portnoy, and Jordan Rudess
Transcribed by Ben Max

Gtr I (E A D G B E) - 'Untitled'
Gtr II (E A D G B E) - 'Untitled'

               0:07
  Moderately Q=118
  N.C.          G7b5
 4/4
  Gtr I
                            ~~~~~~~
  Wx3           W           H    H      Q  Q  Q  Q
|------------||----------|------------|--------------|
|------------||----------|------------|--------------|
|------------||----------|------------|--------------|
|------------||----------|------------|--------------|
|------------||----------|-/8----6----|-5--4--2--0---|
|------------||-3--------|------------|--------------|
|
| Gtr II
|                           ~~~~~~~
| Wx3           W           H    H      Q  Q  Q  Q
|------------||----------|------------|--------------|
|------------||----------|------------|--------------|
|------------||----------|------------|--------------|
|------------||----------|------------|--------------|
|------------||----------|-/8----6----|-5--4--2--0---|
|------------||-3--------|------------|--------------|


                                                      0:21
                                        H.=H        Slower Q=98
                                                       C
                    PM---------------|
                    |-3-|    |-3-|
  Q  Q  H      +Q   e e e q  e e e   q   Q   Q   Q     H      H
|------------|---------------------|----------------||-------------|
|------------|---------------------|----------------||--------5----|
|------------|---------------------|----------------||-5------5----|
|------------|------5-5-5-5--5-5-5-|-5--------------||-------------|
|-1----------|---------------------|----/8--/6--/4--||-------------|
|----4--3----|-(3)-----------------|----------------||-------------|
|
|                   PM---------------|                    PM|
|                   |-3-|    |-3-|                        |3|
| Q  Q  H      +Q   e e e q  e e e   q   Q   Q   Q     Q  q e H
|------------|---------------------|----------------||-------------|
|------------|---------------------|----------------||-------------|
|------------|---------------------|----------------||-5------5----|
|------------|---------------------|----------------||-------------|
|-1----------|---------------------|----/8--/6--/4--||-3--3-3-3----|
|----4--3----|-(3)--3-3-3-3--3-3-3-|-3--------------||-------------|


  Dm/C                  G/B            F/A   Am       G6
   H.            E  E   H     H        Q  Q   Q  Q    H    Q  Q
|---------------------|--------------|--------------|------3------|
|--6-------------8-10-|-6------------|-6--5---------|-5----5--5---|
|--7------------------|-7-----7------|--------7--5--|-4-------4---|
|---------------------|-------5------|-3-----/7-----|-------------|
|---------------------|--------------|--------------|-------------|
|---------------------|--------------|--------------|-------------|
|  W                                   H      H
|
|      PM--|                                  ~~
|      |-3-|
| +Q   e e e Q.     E   Q  Q  Q.   E   H      H       W
|---------------------|--------------|--------------|-------------|
|---------------------|-------3------|--------------|-------------|
|-(5)--------5--------|----0--0------|--------------|-------------|
|---------------------|--------------|-------/7-----|-------------|
|-(3)--3-3-3-3-----/3-|-2----------2-|-0------------|-------------|
|---------------------|--------------|--------------|-3-----------|


  F          Bb            Gsus4    G          C
  W          Q  Q  Q  Q    H        H          H.         Q
|----------|-------6-----|-------------------|----------------|
|-6--------|-3--6--3--6--|-8--------8--------|------------5---|
|-5--------|-3--3-----3--|-5--------4--------|-5-------5------|
|----------|-------------|-------------------|----------------|
|----------|-------------|-------------------|----------------|
|----------|-------------|-------------------|----------------|
|                                              H       H
|
|                             PM--|
|                             |-3-|                |3|
| W          W             Q  e e e E E E  E   Q   Q E H
|----------|-------------|-------------------|----------------|
|----------|-------------|-------------------|----------------|
|----------|-------------|-------------------|-5-------5------|
|----------|-------------|-------------------|-5--------------|
|----------|-1-----------|----------------/5-|-3---3-3-3------|
|-1--------|-------------|-3--3-3-3-3-1-0----|----------------|


  Dm/C                 G/B         Bb    Am       Ab
  H.            E  E   H    H      Q  Q   Q  Q    H    Q  Q
|--------------------|-----------|--------------|-------------|
|-6-------------8-10-|-6---------|-6--5---------|-6----8--6---|
|-7------------------|-7----7----|--------7--5--|------5------|
|--------------------|------5----|-8-----/7-----|-6-----------|
|--------------------|-----------|--------------|-------------|
|--------------------|-----------|--------------|-------------|
| W                                H      H       H    H
|
|     PM--|                                       ~
|     |-3-|
| Q   e e e Q.     E   W           H      H       W
|--------------------|-----------|--------------|-------------|
|--------------------|-3---------|--------------|-------------|
|-5---------5--------|-0---------|-3------2-----|-------------|
|--------------------|-0---------|-3------2-----|-------------|
|-3---3-3-3-3-----/3-|-2---------|-1------0-----|-------------|
|--------------------|-----------|--------------|-4-----------|


  C/G           D/F#             Fm                  Gsus4  G
  H     Q  Q      W               H       H          H      H
|-------------|----------------|-------------------|-------------||
|-5-----8--5--|-/10------------|-/9-------9--------|-8------8----||
|-------5-----|--/7------------|-/8-------7--------|-5------4----||
|-5-----------|----------------|-------------------|-------------||
|-------------|----------------|-------------------|-------------||
|-------------|----------------|-------------------|-------------||
| H     H
|
|                                            |-3-|
| Q  Q  H         Q  E E Q  Q     E E E E Q  E E E   Q.   E H
|-------------|----------------|-------------------|-------------||
|-------------|----------3-----|----------1--------|-------------||
|-------5-----|--------2----2--|--------1----------|-------------||
|----5--------|------0---------|------3------3-3-3-|-5----5-5----||
|-------------|----------------|----3--------3-3-3-|-5----5-5----||
|-3-----------|---2------------|--1----------1-1-1-|-3----3-3----||


 1:06
  Faster Q=110
  Em7     Am7       Dm7     G7        C       F#m7b5    Gsus4   G
  PM------------------------------------------------------------------|
  e e e e e e e e   e e e e e e e e   e e e e e e e e   e e e e e e e e
|-----------------|-----------------|-----------------|-----------------|
|-----------------|-----------------|-----------------|-----------------|
|-----7-------5---|-----5-------4---|-----5-------4---|-----5---4-------|
|---5-------5-----|---3-------3-----|---2-------2-----|-----------------|
|-7-----7---------|-5-----5---------|-3-----3---------|---5---5---5-----|
|---------5-----5-|---------3-----3-|---------2-----2-|-3-----------3-1-|


  Em7     Am7       Dm7     Ab°7      Am      D/F#      Fm      G7
  PM------------------------------------------------------------------|
  e e e e e e e e   e e e e e e e e   e e e e e e e e   e e e e e e e e
|-----------------|-----------------|-----------------|-----------------||
|-----------------|-----------------|-----------------|-----------------||
|-----7-------5---|-----5-------4---|-----2-----------|-----1-------4---||
|---5-------5-----|---3-------3-----|---2---2-----4---|-----------3---3-||
|-------7---------|-5-----5---------|-0---------5---5-|---3-------------||
|-0-------5-----5-|---------4-----4-|---------2-------|-1-----1-3-------||


 1:23
  C                Dm/C
  H.         E E    H.           E  E
|------------7-8-|-/5------------7--8-|
|-8------------5-|--6------------8-10-|
|-5----------7---|--------------------|
|----------------|--------------------|
|----------------|--------------------|
|----------------|--------------------|
|
| Gtr II
|     |3|               |-3-|
| Q   Q E H        +Q   E E E H
|----------------|--------------------|
|----------------|--------------------|
|-5-------5------|-(5)--------2-------|
|-5-------5------|-(5)--------3-------|
|-3---3-3-3------|-(3)--3-3-3-3-------|
|----------------|--------------------|


  G/B                     Bb       Am
    H        +E  E E  E     Q   Q    Q  Q
|-/10-------(10)-7-8-10-|--13--12---10--8---|
|---8-------------------|-/11------/10------|
|-----------------------|-------------------|
|-----------------------|-------------------|
|-----------------------|-------------------|
|-----------------------|-------------------|
|   W                       H        H
|
|             ~~~~
|   Q.    E   H             H        H
|-----------------------|-------------------|
|-----------------------|-------------------|
|-----------------------|---3--------2------|
|-----------------------|---3--------2------|
|---2-------------------|---1--------0------|
|--------/5---3---------|-------------------|


  Ab             C/G            D/F#
   H     Q  Q    H     Q   Q      H.         E  E
|--------------|-8--------12--|--10----------8-10-|
|-/9-----8--6--|-8-----8------|-/10---------------|
|--------------|-------9------|-------------------|
|--------------|--------------|-------------------|
|--------------|--------------|-------------------|
|--------------|--------------|-------------------|
|  W             H     H          W
|
|        ~~
|  H     H       Q  Q  Q   Q      Q   E E Q  Q
|--------------|--------------|-------------------|
|--------------|--------------|-----------3-------|
|--------------|-------5------|---------2----2----|
|-------/6-----|----5---------|-------0-----------|
|--------------|--------------|-------------------|
|--4-----------|-3---------3--|---2---------------|


  Fm                Gsus4  G
   H     H          H      H
|-11-----9--------|-8------7----||
|--9--------------|-6-----------||
|-----------------|-------------||
|-----------------|-------------||
|-----------------|-------------||
|-----------------|-------------||
|  W                W
|
|           PM--|        PM
|           |-3-|
|  H.       e e e   Q.   E H
|-----------------|-------------||
|-----------------|-------------||
|-----------------|-------------||
|--3--------------|-5------5----||
|--3--------------|-5------5----||
|--1--------1-1-1-|-3----3-3----||


 1:45
  Faster Q=128                                      H.=H
  N.C.                        C°7
                                 PM---------------------|
  W             W             E  e e  e e e e e   e e e e H
|-------------|-------------|---11-8------------|--------------|
|-------------|-------------|--------10-7-------|--------------|
|-------------|-------------|-------------8-5---|--------------|
|-------------|-------------|-----------------7-|-4------------|
|-------------|-------------|-------------------|---6-3--------|
|-------------|-------------|-------------------|-------5------|
|
| Q  Q  Q  Q    Q  Q  Q  Q    q    Q    H         W
|-------------|-------------|-------------------|--------------|
|-------------|-------------|-------------------|--------------|
|-------------|-------------|-------------------|--------------|
|-------------|-------1-----|-4-----------------|--------------|
|-------------|-------------|-------------------|--------------|
|-4-----3-----|-2--1--------|-------------------|--------------|


  Slower Q=118
  Ab/C    D/C       Cm          D/C   Fm      G7        A+7   G7
  PM------------------------------------------------------------------|
  q   q   q   q     e e h       e e   q   q   q   q     e e h       e e
|-----------------|-----------------|-----------------|-----------------|
|-9-----------7---|-8-----------7---|-6---------------|-7---------------|
|-----8---7-------|---8-7-----------|-----7---5---8---|---8-7-------5-4-|
|-----------------|-----------------|-----------------|-----------------|
|-----------------|-----------------|-----------------|-----------------|
|-----------------|-----------------|-----------------|-----------------|
|
| PM------------------------------------------------------------------|
| e e e e e e e e   e e e e e e e e   e e e e e e e e   e e e e e e e e
|-----------------|-----------------|-----------------|-----------------|
|-------4-------3-|---------------3-|-----------------|-----------------|
|-----------------|-------2---2-----|-----------------|-----------------|
|---6-------------|---5-------------|-------3-------1-|-------4---4---5-|
|-3---------3-----|-3-------3-------|-----------------|-----------------|
|-----------------|-----------------|---4-------3-----|---5-----4---3---|


  Ab/C    D/C       Cm      D/C       Fm6/Ab  E7            Am
  PM--------------------------------------|
                                              |--3--|
  q   q   q   q     e e h       e e   q   q   e e   e q     w          W
|-----------------|-----------------|---------------------|----------|------||
|-9-----------7---|-8-----------7---|-6-------------------|----------|------||
|-----8---7-------|---8-7-----------|-----7---5h7p==5-4---|-2--------|------||
|-----------------|-----------------|---------------------|----------|------||
|-----------------|-----------------|---------------------|----------|------||
|-----------------|-----------------|---------------------|----------|------||
|
| PM--------------------------------------------------------|
| e e e e e e e e   e e e e e e e e   e e e e e   e   e e   w          W
|-----------------|-----------------|---------------------|----------|------||
|-------4-------3-|-----------3-----|---------------------|----------|------||
|-----------------|-----2---2---2---|---------------------|----------|------||
|---6-------------|-------4-------4-|---3---4-----5-----6-|-7--------|------||
|-3---------3-----|-3---------------|---------------------|----------|------||
|-----------------|-----------------|---------------------|----------|------||


 2:13
  Faster Q=132(8=s8)
  Ebm
     PM--|               PM----------|      PM--|               PM----------|
     |-3-|                 |-3-| |-3-|      |-3-|                 |-3-| |-3-|
  Q  e e e Q.   E   Q.   e e e e e e e   Q  e e e Q.   E   Q.   e e e e e e e
|-----------------|--------------------|-----------------|---------------------|
|-----------------|--------------------|-----------------|---------------------|
|-8--------8------|-8------------------|-8--------8------|-8-------------------|
|-----------------|--------------------|-----------------|---------------------|
|-6--6-6-6-6----6-|-6----6-6-6-6-6-6-6-|-6--6-6-6-6----6-|-6----6-6-6-6-6-6-6--|
|-----------------|--------------------|-----------------|---------------------|


     PM--|               PM----------|      PM--|          ~~~~~~~
     |-3-|                 |-3-| |-3-|      |-3-|
  Q  e e e Q.   E   Q.   e e e e e e e   Q  e e e Q.   E   H    H
|-----------------|--------------------|-----------------|-----------|
|-----------------|--------------------|-----------------|-----------|
|-8--------8------|-8------------------|-8--------8----x-|-----------|
|-----------------|--------------------|---------------x-|-----------|
|-6--6-6-6-6----6-|-6----6-6-6-6-6-6-6-|-6--6-6-6-6------|-----------|
|-----------------|--------------------|-----------------|-5----4----|


                                                                Cb5Bb5A5 Ab5
              |--3--|               |--3--|
  q  q  S S E e E S S   q  q  S S E e E S S   q  q  S S E E E   Q  Q  Q  Q
|---------------------|---------------------|-----------------|-------------|
|---------------------|---------------------|-----------------|-------------|
|-8--8----8---8---8-8-|-8--8----8---8---8-8-|-8--8----8---8-x-|-------------|
|---------------------|---------------------|---------------x-|-------------|
|-6--6----6---6---6-6-|-6--6----6---6---6-6-|-6--6----6---6---|-9--8--7--6--|
|---------------------|---------------------|-----------------|-7--6--5--4--|


  Ebm
  Q   Q  H      Q   Q  H      Q   Q  H       Q  Q  Q  Q
|-------------|-------------|-------------|--------------||
|-------------|-------------|-------------|--------------||
|-8\----------|-8\----------|-8\----------|--------------||
|-8\----------|-8\----------|-8\----------|--------------||
|-6\----------|-6\----------|-6\----------|--------------||
|-6\----------|-6\----------|-6\----------|-/7--6--5--4--||


   2:41
    PM------------------------------------------------------------------|
    |-3-| |3| |-3-| |-3-|   |-3-| |3| |-3-| |-3-|   |-3-| |3| |-3-| |-3-|
    e e e q e e e e e e e   e e e q e e e e e e e   e e e q e e e e e e e  3x
||------------------------|-----------------------|------------------------||
||o-----------------------|-----------------------|-----------------------o||
||------------------------|-----------------------|------------------------||
||------------------------|-----------------------|------------------------||
||o-3-3-3-3-3---3-3-3-3-3-|-3-3-3-3-3---3-3-3-3-3-|-3-3-3-3-3---3-3-3-3-3-o||
||------------------------|-----------------------|------------------------||


  D/C                     Cm/Eb                   Ab7         G7
  PM--------------------------------------------------------------------|
  |-3-| |3| |-3-| |-3-|   |-3-| |3| |-3-| |-3-|   |-3-| |-3-| |-3-| |-3-|
  e e e q e e e e e e e   e e e q e e e e e e e   e e e e e e e e e e e e
|-----------------------|-----------------------|-------------------------|
|-----------------------|-----------------------|-------------------------|
|-----------------------|-----------------------|-------------------------|
|-----------------------|-----------------------|-------------------------|
|-----------------------|-6-6-6-6-6---6-6-6-6-6-|-------------------------|
|-2-2-2-2-2---2-2-2-2-2-|-----------------------|-2-2-2-2-2-2-3-3-3-3-3-3-|


  Ab                      D/C                     Fm
  PM--------------------------------------------------------------|
  |-3-| |3| |-3-| |-3-|   |-3-| |3| |-3-| |-3-|      |-3-|    |-3-|
  e e e q e e e e e e e   e e e q e e e e e e e   q  e e e q  e e e
|-----------------------|-----------------------|-------------------|
|-----------------------|-----------------------|-------------------|
|-----------------------|-----------------------|-------------------|
|-----------------------|-----------------------|-------------------|
|-----------------------|-----------------------|-------------------|
|-4-4-4-4-4---4-4-4-4-4-|-2-2-2-2-2---2-2-2-2-2-|-1--1-1-1-1--1-1-1-|


                    Faster Q=152
  F#+7                 N.C.
  PM--------------|     ~~
     |-3-|    |-3-|
  q  e e e q  e e e     W          H    H      Q.   E +Q   E E
|-------------------||-----------|-----------|-----------------|
|-------------------||-----------|-----------|-----------------|
|-------------------||-----------|-----------|-----------------|
|-------------------||-----------|-----------|-----------------|
|-------------------||-/7--------|-5----3----|-2----0-(0)------|
|-2--2-2-2-2--2-2-2-||-----------|-----------|-------------3-2-|


                                         C+
                                 2/4    4/4              3/4
                                            |-3-| |-3-|
  +Q.   E +Q.   E   +H     H      H      Q  E E E Q Q Q   Q   H
|-----------------|-------------|------|----------------|----------|
|-----------------|-------------|------|----------------|----------|
|-----------------|-------------|------|-5--------------|-5\-------|
|---------------6-|-(6)---------|------|----------------|----------|
|-----------------|--------5----|-4----|-3--3-3-3-3-3-3-|-3\-------|
|-(2)---0-(0)-----|-------------|------|----------------|----------|


 3:21
  Slower Q=124
  E            A/E          B/D#          A/C#          G#m/B
 4/4
  Q  Q  H      Q  Q  H      Q  Q  Q  Q    Q  Q  Q  Q    Q  Q  Q  Q
|------------|------------|-------------|-------------|-------------|
|------------|------------|-------------|-------------|-------------|
|------------|------------|-------------|-------------|-------------|
|------------|------------|-------------|-------------|-------------|
|------------|------------|-6--------6--|-4-----4-----|-2-----2--2--|
|-0----------|-0----------|-------------|-------------|-------------|


  A             D             B             E             A/E
  Q  Q  Q  Q    Q  Q  Q  Q    Q  Q  Q  Q    Q  Q  Q  Q    Q  Q  Q  Q
|-------------|-------------|-------------|-------------|--------------|
|-------------|-------------|-------------|-------------|--------------|
|-------------|-------------|-------------|-------------|--------------|
|-------------|-------------|-------------|-------------|--------------|
|-0-----0-----|-5--------5--|-2-----2-----|-------------|----------7---|
|-------------|-------------|-------------|-0--------0--|-0------------|


  B/D#          A/C#          Am/C#        E/B           F#/A#
  Q  Q  Q  Q    Q  Q  Q  Q    Q  Q  H      Q  Q  Q  Q    Q  Q  Q  Q
|-------------|-------------|------------|-------------|--------------|
|-------------|-------------|------------|-------------|--------------|
|-------------|-------------|------------|-------------|--------------|
|-------------|-------------|------------|-------------|--------------|
|-6--------6--|-4-----4-----|-3----------|-2-----2--2--|-1-----1------|
|-------------|-------------|------------|-------------|--------------|


                             3:54
                           Slower Q=72
                              Amaj7      Emaj7      Amaj7
  Q  Q  Q  Q    Q  Q  H       W          W          H.      Q
|-------------|------------||----------|----------|-------------|
|-------------|------------||----------|----------|-------------|
|-------------|------------||-6--------|-4--------|-6-----------|
|-------------|------------||----------|----------|---------6---|
|-0--------0--|-2----------||----------|----------|-------------|
|-------------|------------||----------|----------|-------------|


  Emaj7             Amaj7      Emaj7         Bm   A  F#m       G    A/GBm/F#
                                            5/4               4/4
  E E E E E E E E   W          H.      E E   H    Q  Q  +Q     H    Q  Q
|-----------------|----------|-------------|-----------------|------------||
|-----------------|----------|-------------|------7----------|------------||
|---------4-------|-6--------|-4-----------|-7-------6--(6)--|-7----6--7--||
|---4-6-7-----4-6-|----------|-----------6-|-----------------|------------||
|-7---------7-----|----------|---------7---|-----------------|------------||
|-----------------|----------|-------------|-----------------|------------||


 4:24
  Faster Q=126
  Em7     Am7       Dm7     G7        C       F#m7b5    Gsus4   G
  PM------------------------------------------------------------------|
  e e e e e e e e   e e e e e e e e   e e e e e e e e   e e e e e e e e
|-----------------|-----------------|-----------------|------------------|
|-----------------|-----------------|-----------------|------------------|
|-----7-------5---|-----5-------4---|-----5-------4---|-----5---4--------|
|---5-------5-----|---3-------3-----|---2-------2-----|------------------|
|-7-----7---------|-5-----5---------|-3-----3---------|---5---5---5------|
|---------5-----5-|---------3-----3-|---------2-----2-|-3-----------3-1--|


                                                          H.=H
  Em7     Am7       Dm7     Ab°7      Am      D/F#      Fm      G7
  PM------------------------------------------------------------------|
  e e e e e e e e   e e e e e e e e   e e e e e e e e   e e e e e e e e
|-----------------|-----------------|-----------------|-----------------||
|-----------------|-----------------|-----------------|-----------------||
|-----7-------5---|-----5-------4---|-----2-----------|-----1-------4---||
|---5-------5-----|---3-------3-----|---2---2-----4---|-----------3---3-||
|-------7---------|-5-----5---------|-0---------5---5-|---3-------------||
|-0-------5-----5-|---------4-----4-|---------2-------|-1-----1-3-------||


 4:40
  Slower Q=72
  C        Eb   Gm    Bb    Bb/D  F     Am      C     Eb    Gm    Bb
  Gtr I
  Q.   S S  E E E E    E  E  E  E  E  E  E  E    E  E  E  E  E  E   E  E
|-------------5-6-8-|-10-------------------10-|-12--------------------12--|
|-5----5-6--8-------|----11-------10-12-13----|----13----------13--15-----|
|-------------------|-------10-12-------------|-------12-14-15------------|
|-------------------|-------------------------|---------------------------|
|-------------------|-------------------------|---------------------------|
|-------------------|-------------------------|---------------------------|
|
| Gtr II
| H         Q   Q      Q     Q     Q     Q       Q     Q     Q      Q
|-------------------|-------------------------|---------------------------|
|-------------------|--6----------------------|--8------------------------|
|-5--------/8---7---|--------7-----5----/9----|--------8-----7----/10-----|
|-------------------|-------------------------|---------------------------|
|-------------------|-------------------------|---------------------------|
|-------------------|-------------------------|---------------------------|


  Faster Q=118
  Dm          C/E   F           G
 6/8
   S  S  S  S  S  S  S  S  S  S  S  S
|-13-10-------15-12-17-13-------19-15-|
|-------10----------------13----------|
|----------10----------------14-------|
|-------------------------------------|
|-------------------------------------|
|-------------------------------------|


                                                             H.=H
  Am          Em          F             F#+7
 3/4
   S  S  S  S  S  S  S  S  S  S  S  S    S  S  S  S  S  S  S  S Q
|-20-17-------19-15-------17-13-------|-17-14-----------------------|
|-------17----------17----------13----|-------16--------------------|
|----------17----------16----------14-|----------17-14--------------|
|-------------------------------------|----------------16-13--------|
|-------------------------------------|----------------------15-----|
|-------------------------------------|-----------------------------|


            4:59
          Slower Q=104
  B7         E              E              B
 2/4        4/4
              ~~             ~~                     ~
                   |-3-|          |-3-|
  E E E E     H    Q Q Q     H    Q Q Q    Q  +E  E H
|---------||--------------|--------------|---------------|
|---------||--------------|--------------|---------------|
|-4-------||-/9-----------|-/9-----------|-8--(8)s4-4----|
|---7-4---||-------6-7-9--|-------6-7-9--|---------------|
|-------6-||--------------|--------------|---------------|
|---------||--------------|--------------|---------------|
|
| Gtr II
|                                          ~~~~~~~~~~~
| W           W              W             H        H
|---------||--------------|--------------|---------------|
|---------||--------------|--------------|---------------|
|---------||--9-----------|--9-----------|---------------|
|---------||--9-----------|--9-----------|---------------|
|---------||--7-----------|--7-----------|-2--------4----|
|---------||--0-----------|--0-----------|---------------|


                        F#m                C#m
   ~~~
          |-3-| |-3-|
  +H      E E E E E E     H.      E  S S   E  E +H       E E
|---------------4-5-7-|--/9-------7h=9p7-|-5--4-(4)------4-5-|
|---------4-5-7-5-7-9-|-/10-------9h10p9-|-7--5-(5)------5-7-|
|-(4)-----4-6-8-------|------------------|-------------------|
|---------------------|------------------|-------------------|
|---------------------|------------------|-------------------|
|---------------------|------------------|-------------------|
|
|  ~~~          PM--|             PM|               PM
|               |-3-|
|  Q.   E Q     E E E     H.      E  E     Q.       E Q  Q
|---------------------|------------------|-------------------|
|---------------------|------------------|-------------------|
|---------------4-4-4-|------------------|-6----------6--6---|
|---------------4-4-4-|---4--------------|-6----------6--6---|
|-/6----4-2-----2-2-2-|---4----------2---|-4--------4-4--4---|
|---------------------|---2-------5------|-------------------|


                            5:19
                 H.=H     Slower Q=76
  E/B            BsBs4
  H.        Q    W           Wx8
|-7--------/9--|-7--------||--------|
|-9-------/10--|-7--------||--------|
|--------------|----------||--------|
|--------------|----------||--------|
|--------------|----------||--------|
|--------------|----------||--------|
|
| H.        Q    W           Wx8
|--------------|----------||--------|
|--------------|----------||--------|
|-4------------|-4--------||--------|
|--------------|----------||--------|
|-2---------2--|-2--------||--------|
|--------------|----------||--------|


  Faster Q=88
  Ab   Eb/G   Fm Bb Cm      Ab   Eb/G      Dbm/maj7
       ~                                   ~
  H    H      Q  Q   H      H    Q  E  E   W
|-----------|-------------|--------------|------||
|-----------|-------------|--------------|------||
|-----------|-------------|--------------|------||
|-6---------|-3--3--/5----|-6------------|------||
|-6---------|-3--1--/3----|-6---------/6-|-4----||
|-4----3----|-1-----------|-4----3--1----|------||


 6:02
  Faster Q=102
  C           Dm/C          G/B           Bb    Am
  H    H       H     H      H      H      Q  Q  Q  Q
|-----------|-------10----|-7-----------|--------------|
|-5----8----|-10----------|--------8----|-6--5--3--1---|
|-5---------|--7----------|-4------7----|-3-----2------|
|-----------|-------------|-------------|--------------|
|-----------|-------------|-------------|--------------|
|-----------|-------------|-------------|--------------|
| W            W                          H     H
|
| Gtr II
|                                  ~
| W            W            Q.   E H      H     H
|-----------|-------------|-------------|--------------|
|-----------|--3----------|-------------|--------------|
|-5---------|--2----------|-------------|-3-----2------|
|-5---------|-------------|-------------|-3-----2------|
|-3---------|--3----------|-2----0------|-1-----0------|
|-----------|-------------|--------3----|--------------|


  Ab           Bb/Ab          C/G                            Eb/Bb
  H     H      H       H      H      Q   Q     W             W
|-------4----|---------6----|--------8--10--|-12-----------|-3-----------|
|-4----------|-6------------|-8-------------|--------------|-4-----------|
|-5----------|-7------------|-9---------10--|-12-----------|-------------|
|------------|--------------|---------------|--------------|-------------|
|------------|--------------|---------------|--------------|-------------|
|------------|--------------|---------------|--------------|-------------|
| W            W              H.         Q
|
|       ~~             ~~
| H     H      Q.   E  H      Q   Q  Q   Q     Q  Q  Q  Q    Q.   E H
|------------|--------------|---------------|--------------|-------------|
|------------|--------------|---------------|--------------|-------------|
|------------|--------------|--------5------|--------------|--------8----|
|------/6----|--------/8----|-----5------5--|-----5--2-----|--------8----|
|------------|--------------|---------------|-----------3--|-------------|
|-4----------|-4----4-------|-3-------------|--3-----------|-6----6------|


  F/Bb             Gb/Bb                            A/E
  H.         E E   H.           Q     W              W
|-5----------3-5-|-6------------8--|--9----------||--9-------------|
|-6--------------|-7------------9--|-11----------||-10-------------|
|----------------|-----------------|-------------||----------------|
|----------------|-----------------|-------------||----------------|
|----------------|-----------------|-------------||----------------|
|----------------|-----------------|-------------||----------------|
| W
|
|                               ~~                      PM--|
|                                                       |-3-|
| Q.   E  H        Q.   E   Q   Q     H    Q  Q      Q  e e e H
|----------------|-----------------|-------------||----------------|
|----------------|-----------------|-------------||----------------|
|--------10------|--------/11--11--|-------------||-----------6----|
|--------10------|--------/11--11--|-------------||-----------7----|
|----------------|-----------------|-------------||-----------7----|
|-6----6---------|-6----6----------|--6----4--2--||--0--0-0-0------|


  B/E                  C/E            D     C     D       E
   H.           E  E    H.             Q     H     H       W
|-11------------9-11-|-12-------------14--|-15----17----|-19----*|
|-12-----------------|-13-------------15--|-17----19----|-17----*|
|--------------------|--------------------|-------------|-------*|
|--------------------|--------------------|-------------|-------*|
|--------------------|--------------------|-------------|-------*|
|--------------------|--------------------|-------------|-------*|
|  W
|
|      PM--|                PM--|
|      |-3-|                |-3-|
|  Q   e e e H          Q   e e e  Q   Q     H     H       W
|--------------------|--------------------|-------------|-------*|
|--------------------|--------------------|-------------|-------*|
|------------8-------|-------------9---7--|--5-----7----|--9----*|
|------------9-------|------------10---7--|--5-----7----|--9----*|
|------------9-------|------------10---5--|--3-----5----|--7----*|
|--0---0-0-0---------|--0---0-0-0---------|-------------|--0----*|


Duration Legend
---------------
W - whole; H - half; Q - quarter; E - 8th; S - 16th; T - 32nd; X - 64th; a - acciaccatura
+ - note tied to previous; . - note dotted; .. - note double dotted
Uncapitalized letters represent notes that are staccato (1/2 duration)
Irregular groupings are notated above the duration line
Duration letters will always appear directly above the note/fret number it represents the
duration for.  Duration letters with no fret number below them represent rests.  Multi-
bar rests are notated in the form Wxn, where n is the number of bars to rest for.  Low
melody durations appear below the staff

Tablature Legend
----------------
 h   - hammer-on
 p   - pull-off
 b   - bend
 pb  - pre-bend
 r   - bend release (if no number after the r, then release immediately)
 /\  - slide into or out of (from/to "nowhere")
 s   - legato slide
 S   - shift slide
  - natural harmonic
[n]  - artificial harmonic
n(n) - tapped harmonic
 ~   - vibrato
 tr  - trill
 T   - tap
 TP  - trem. picking
 PM  - palm muting
\n/  - tremolo bar dip; n = amount to dip
 \n  - tremolo bar down
 n/  - tremolo bar up
/n\  - tremolo bar inverted dip
 =   - hold bend; also acts as connecting device for hammers/pulls
   - volume swell (louder/softer)
 x   - on rhythm slash represents muted slash
 o   - on rhythm slash represents single note slash

Misc Legend
-----------
 |  - bar
||  - double bar
||o - repeat start
o|| - repeat end
*|  - double bar (ending)
 :  - bar (freetime)
 $  - Segno
 &  - Coda
Tempo markers -  = BPM(8/16=s8/s16), where s8 = swing 8ths, s16 = swing 16ths


***************************************************************************************
* Generated using Power Tab Editor by Brad Larsen - http://powertab.guitarnetwork.org *


Important: The song above is NOT stored on the Chordie server. The original song is hosted at www.xguitar.com. Chordie works as a search engine and provides on-the-fly formatting. Chordie does not index songs against artists'/composers' will. To remove this song please click here.

This song is displayed as text-only. Transposing and tuning is only available for chordpro-songs.

Login - add to songbook

Rating click stars to rate

Layout
Accuracy

SHARE PAGE  




You need to log in to post comments