Guitar Tabs, Chords and Lyrics


The Glass Prison    Dream Theater


|----------------|----------------|----------------|----------------|







|----------------|----------------|----------------|----------------|







|----------------|----------------|----------------|----------------|


|----------------|----------------|----------------|----------------|


|2---------------|(2)---------2-2-|2---------------|2-----2-----2---|


|2---------------|(2)---------2-2-|2---------------|2-----2-----2---|


|0---------------|(0)---------0-0-|0---------------|0-----0-----0---|


|----------------|------------------|----------------|----------------|


|----------------|------------------|----------------|----------------|


|----------------|------------------|----------------|----------------|


|----------------|------------------|----------------|----------------|


|----2-----------|__3__-------------|----2-----------|(2)-------------|


|----2-----------|4-4-4-4-----5-5---|----2-----------|(2)-------------|


|----0-----------|2-2-2-2-----3-3---|----0-----------|(0)----/21^~~~~\|


|--------------------------------|--------------------------------|


|--------------------------------|--------------------------------|


|--------------------------------|--------------------------------|


|--------------------------------|--------------------------------|


|--------5-------4---------------|----2-----------2-----------2---|


|---/7-------7-------5-------5---|3-------3---4-------4---5-------|


|0-----------------------0-------|--------------------------------|


|--------------------------------|--------------------------------|


|--------------------------------|--------------------------------|


|--------------------------------|--------------------------------|


|--------------------------------|--------------------------------|


|--------5-------4---------------|----2-----------2---------------|


|---/7-------7-------5-------5---|3-------3---4-------4-------4---|


|0-----------------------0-------|------------------------3-------|


|--------------------------------|--------------------------------|


|--------------------------------|--------------------------------|


|--------------------------------|--------------------------------|


|--------------------------------|--------------------------------|


|--------5-------4---------------|----2-----------2-----------2---|


|---/7-------7-------5-------5---|3-------3---4-------4---5-------|


|0-----------------------0-------|--------------------------------|


|--------------------------------|--------------------------------|


|--------------------------------|--------------------------------|


|--------------------------------|--------------------------------|


|--------------------------------|--------------------------------|


|--------5-------4---------------|----2-----------2---------------|


|---/7-------7-------5-------5---|3-------3---4-------4-----------|


|0-----------------------0-------|------------------------3 p.h.~-|


|--------------------------------|--------------------------------|


|--------------------------------|--------------------------------|


|--------------------------------|--------------------------------|


|--------------------------------|--------------------------------|


|--------5-------4---------------|----2-----------2-----------2---|


|---/7-------7-------5-------5---|3-------3---4-------4---5-------|


|0-----------------------0-------|--------------------------------|


|--------------------------------|--------------------------------|


|--------------------------------|--------------------------------|


|--------------------------------|--------------------------------|


|--------------------------------|--------------------------------|


|--------5-------4---------------|----2-----------2---------------|


|---/7-------7-------5-------5---|3-------3---4-------4-------4---|


|0-----------------------0-------|------------------------3-------|


|--------------------------------|--------------------------------|


|--------------------------------|--------------------------------|


|--------------------------------|--------------------------------|


|--------------------------------|--------------------------------|


|--------9-------7---------------|----5-----------7-------4---5---|


|---/10------10------9-------9---|7-------7---7-------7-----------|


|0-----------------------0-------|--------------------------------|


|--------------------------------|--------------------------------|


|--------------------------------|--------------------------------|


|--------------------------------|--------------------------------|


|--------------------------------|--------------------------------|


|--------5-------4---------------|----2-----------2-----------2---|


|---/7-------7-------5-------5---|3-------3---4-------4---5-------|


|0-----------------------0-------|--------------------------------|


|--------------------------------|--------------------------------|


|--------------------------------|--------------------------------|


|--------------------------------|--------------------------------|


|--------------------------------|----------------------------6-\-|


|--------9-------7---------------|----5-----------7-------5-------|


|---/10------10------9-------9---|7-------7---7-------7-----------|


|0-----------------------0-------|--------------------------------|


|--------------------------------|--------------------------------|


|--------------------------------|--------------------------------|


|--------------------------------|--------------------------------|


|--------------------------------|--------------------------------|


|--------5-------4---------------|----2-----------2---------------|


|---/7-------7-------5-------5---|3-------3---4-------4-------4-\-|


|0-----------------------0-------|------------------------3-------|




  [4/4]                                 [2/4]                                                                        


||--------------------------------|----------------|
||--------------------------------|----------------|
||.-------------------------------|----------------|
||--------------------------------|----------------|
||.-------------------------------|----------------|
||2-------2---------------5---2---|--------5---2---|
||0-------0-----------0-0-3---0---|----0-0-3---0---|




 [4/4]                                 [3/4]                                                                        


|--(notes marked w/ "*" played---|divisi (w/ wah)---------||
|--2nd, 4th, and 6th times only)-|--*-------*-------*-----||
|--------------------------------|7-7-----7-7-----7-7----.||
|--------------------------------|----9-------9-------9---||
|--------------------------------|5-------5-------5------.||
|--------5---2-----------5---7---|----7-------7-------7---|| riff A
|----0-0-3---0---5 / 7-----------|------------------------|| 6x




  (2:12) drums superimpose 7/4 feel


                                                                                                         


||--------------------------------|--------------------------------|
||--------------------------------|--------------------------------|
||.-------------------------------|--------------------------------|
||--------------------------------|--------------------------------|
||.-------------------------------|--------------------------------|
||--------------------------------|--------------------------------|
||3-2-0---0---3-2-0---0---0-0-0---|3-2-0---0---0-0-0---0---0-0-0---|




                                  [2/4]                                                                        


|--------------------------------|----------------||
|--------------------------------|----------------||
|--------------------------------|---------------.||
|--------------------------------|----------------||
|--------------------------------|---------------.||
|--------------------------------|----------------||
|3-2-0---0---3-2-0---0---0-0-0---|5-3-0---6-5-0---|| rhythm figure 1




 (2:22) w/ rhythm figure 1 (2x)


                                                                                                         


|19-14----------14-19-14----------14-19-14-------|
|------15----15----------15----15----------15----|
|---------16----------------16----------------16-|
|gtr 3-------------------------------------------|
|------------------------------------------------|
|------------------------------------------------|
|------------------------------------------------|
|18-15----------------15-17-14----------------14-|
|------17----------17----------16----------16----|
|---------18-15-18----------------17-14-17-------|
|------------------------------------------------|
|------------------------------------------------|
|------------------------------------------------|
|------------------------------------------------|
|15-12----------12-15-12----------12-15-12-------|
|------12----12----------12----12----------12----|
|---------12----------------12----------------12-|
|------------------------------------------------|
|------------------------------------------------|
|------------------------------------------------|
|------------------------------------------------|
|13-9----------------9-|
|-----12----------12---|
|--------13-10-13------|
|----------------------|
|----------------------|
|----------------------|
|----------------------|
|14-10----------10-14-10----------10-14-10-------|
|------12----12----------12----12----------12----|
|---------11----------------11----------------11-|
|------------------------------------------------|
|------------------------------------------------|
|------------------------------------------------|
|------------------------------------------------|
|13-10----------------10-12-9---------------9-|
|------12----------12---------11---------11---|
|---------13-10-13---------------12-9-12------|
|---------------------------------------------|
|---------------------------------------------|
|---------------------------------------------|
|---------------------------------------------|
|10-7-------7-10-7-------7-10-7-----|
|-----8---8--------8---8--------8---|
|-------7------------7------------7-|
|-----------------------------------|
|-----------------------------------|
|-----------------------------------|
|-----------------------------------|
|-------------------21-24-|
|-------------17-17-------|
|----------18-------------|
|-------19----------------|
|----19-------------------|
|/17----------------------|
|-------------------------|
|22-17----------17-22-17----------17-22-17-------|
|------18----18----------18----18----------18----|
|---------19----------------19----------------19-|
|------------------------------------------------|
|------------------------------------------------|
|------------------------------------------------|
|------------------------------------------------|




[-]                                                                                                          


|------------------------------------------------|
|------------------------------------------------|
|divisi------------------------------------------|
|------------------------------------------------|
|8--7--5-----5-----8--7--5-----5-----5--5--5-----|
|------------------------------------------------|rhythm figure 2
|6--5--3-----3-----6--5--3-----3-----3--3--3-----|

Important: The song above is NOT stored on the Chordie server. The original song is hosted at www.xguitar.com. Chordie works as a search engine and provides on-the-fly formatting. Chordie does not index songs against artists'/composers' will. To remove this song please click here.

This song is displayed as text-only. Transposing and tuning is only available for chordpro-songs.

Login - add to songbook

Rating click stars to rate

Layout
Accuracy

SHARE PAGE  




You need to log in to post comments