Guitar Tabs, Chords and Lyrics


The Great Debate   Dream Theater

|--------------|-----------------|


|--------------|-----------------|


|--------------|-----------------|


|--------------|-----------------|


|--------7~~~--|------7~~~-7~~~--|


|--0--0--------|--0--------------|


|------------------------|------------------|


|------------------------|------------------|


|------------------------|------------------|


|--2-2-0--2--0--3--2--0--|--2-2-0--3--2--0--|


|------------------------|------------------|


|------------------------|------------------|


   P.M.----------------------------------|


|------------------------|------------------|


|------------------------|------------------|


|------------------------|------------------|


|--2-2-0--2--0--3--2--0--|--2-2-0--3--2--0--|


|------------------------|------------------|


|------------------------|------------------|


   P.M.----------------------------------|


|------------------------|------------------|


|------------------------|------------------|


|------------------------|------------------|


|--2-2-0--2--0--4--2--0--|--2-2-0--4--2--0--|


|------------------------|------------------|


|------------------------|------------------|

[A5]       [E5]    Riff F:
[D]      [A5]       [Asus2]          [Am]       [E]      [F] [D]      [A5]       [Asus2]          [Am]       [D5]      [C5]Riff G:
|----------------------------|
|----------------------------|
|----------------------------|
|--2-0---2-0---2-0---2-3-----|
|----------------------------|
|------0-----0-----0---------|

Riff H:
   P.M.----------------|
|----------------------------|
|----------------------------|
|----------------------------|
|--2-0---2-0---2-0---2-3-----|
|----------------------------|
|------0-----0-----0---------|

Riff I:
|---------------------------|
|---------------------------|
|---------------------------|
|--2--2---------------------|
|--2--2--3---3-5-----/8--8--|
|--------3---3-5-----/8--8--|

Riff J:
|-----------------------------------|
|-----------------------------------|
|-----------------------------------|
|--2-0---3-0---2-0---3-0------------|
|-----------------------------------|
|------0-----0-----0-----0-x-x-x-x--|

Riff K:
|-----------------------------------------|
|-----------------------------------------|
|-----------------------------------------|
|--2--------------------------------------|
|--2-x-x-x---3---------5-----------/8--8--|
|------------3-x-x-x---5-x-x-x--x--/8--8--|

Riff L:
[D5]       [C5]       [D5]   Riff M:
|---------------------------|
|---------------------------|
|---------------------------|
|--0-3-5-0-3-5-0-3-6-0-3-5--|
|---------------------------|
|---------------------------|

Riff N:
D5 (fade out)
Bridge:
1st Half
No guitar, bass plays riff M
2nd Half:
|-----------------------------------|
|-----------------------------------|
|--2----3----1----2-----------------|
|--0----0----0----0----3----2-------|
|----------------------0----0----3--|
|--------------------------------3--|

Then play Riff M
Riff O:
|--------------------------------------------------------|
|--------------------------------------------------------|
|--------------------------------------------------------|
|--0-0--0--0-0-0--0--0-0-0--0--0-0-0--3-3-3--3-2-2-2--2--|
|--------------------------------------------------------|
|--------------------------------------------------------|
|---------------------------------------------------------------------------|
|---------------------------------------------------------------------------|
|---------------------------------------------------------------------------|
|--------------------------------------------0-0-0--0-0-0--0-0-0--0--0-0-0--|
|--3--3-3--3-3-3--3-3-3-----------------------------------------------------|
|------------------------3-3--3--3-5-5--5--5--------------------------------|

Riff P:
|-----------------|
|-----------------|
|-----------------|
|-------2---2-----|
|---------2---2---|
|--0--0-----------|

Riff Q:
|--------------------------------------------|
|--------------------------------------------|
|--------------------------------------------|
|--2-2--2--2--2-2--2--2--2-2--2--2--2--2--2--|
|--2-2--2--2--2-2--2--2--2-2--2--2--2--2--2--|
|--0-0--0--0--0-0--0--0--0-0--0--0--0--0--0--|

All the rest you'll have to figure out on your own

Important: The song above is NOT stored on the Chordie server. The original song is hosted at www.xguitar.com. Chordie works as a search engine and provides on-the-fly formatting. Chordie does not index songs against artists'/composers' will. To remove this song please click here.

Text color:
Chord color:
Chord grids: 
Font size:    
Page size: 

A5 Am Asus2 C5 D D5 E E5 F
variations - click chord images

Login - add to songbook

Transpose chords

Tuning

Rating click stars to rate

Layout
Accuracy

SHARE PAGE  




You need to log in to post comments