Guitar Tabs, Chords and Lyrics


Six Degrees of Inner Turbulence: IV. The Test That Stumped Them All 5:03   Dream Theater

|-19p17-------21p17-------19p17----------17-|


|-------18p17-------18p17-------18-17-18----|


|-------------------------------------------|

|-------------------------------------------|
|-------------------------------------------|
|-------------------------------------------|
|-19p17-------21p17-------19p17-------|
|-------18p17-------18p17-------18p17-|
|-------------------------------------|
|-------------------------------------|
|-------------------------------------|
|-------------------------------------|
|-7p5-----9p5-----7p5-------5-|-7p5-----9p5-----7p5-----|
|-----6p5-----6p5-----6-5-6---|-----6p5-----6p5-----6p5-|
|-----------------------------|-------------------------|
|-----------------------------|-------------------------|
|-----------------------------|-------------------------|
|-----------------------------|-------------------------|
|------------------------------|--------------------------|
|------------------------------|--------------------------|
|------------------------------|--------------------------|
|-9p7-----11p7-----9p7-------7-|-9p7-----11p7-----9p7-----|
|-----8p7------8p7-----8-7-8---|-----7h8------8p7-----8p7-|
|------------------------------|--------------------------|
|-------------------------------|----------------------------|
|-------------------------------|----------------------------|
|-------------------------------|----------------------------|
|-9p=7-----11p7-----9p7-------7-|--9p=7-----11p7-----9p7-----|
|------8p7------8p7-----8-7-8---|-------7h8------8p7-----8p7-|
|-------------------------------|----------------------------|
|-------------------------------|----------------------------|
|-------------------------------|----------------------------|
|-------------------------------|----------------------------|
|-2-----------------------------|-(2)------------------------|
|-2-----------------------------|-(2)------------------------|
|-0-----------------------------|-(0)------------------------|
|------------------------------|--------------------------|
|------------------------------|--------------------------|
|------------------------------|--------------------------|
|-9p7-----11p7-----9p7-------7-|-9p7-----11p7-----9p7-----|
|-----8p7------8p7-----8p7h8---|-----7h8------8p7-----8p7-|
|------------------------------|--------------------------|
|------------------------------|--------------------------|
|------------------------------|--------------------------|
|------------------------------|--------------------------|
|-7----------------------------|--------------------------|
|-5----------------------------|--------------------------|
|-5----------------------------|--------------------------|
|-------------------------------|----------------------------|
|-------------------------------|----------------------------|
|-------------------------------|----------------------------|
|-9p=7-----11p7-----9p7-------7-|--9p=7-----11p7-----9p7-----|
|------8p7------8p7-----8-7-8---|-------7h8------8p7-----8p7-|
|-------------------------------|----------------------------|
|-------------------------------|----------------------------|
|-------------------------------|----------------------------|
|-------------------------------|----------------------------|
|-------------------------------|----------------------------|
|-4-----------------------------|-(4)------------------------|
|-------------------------------|----------------------------|
|------------------------------|--------------------------|
|------------------------------|--------------------------|
|------------------------------|--------------------------|
|-9p7-----11p7-----9p7-------7-|-9p7-----11p7-----9p7-----|
|-----8p7------8p7-----8-7-8---|-----7h8------8p7-----8p7-|
|------------------------------|--------------------------|
|------------------------------|--------------------------|
|------------------------------|--------------------------|
|------------------------------|--------------------------|
|------------------------------|--------------------------|
|-5----------------------------|--------------------------|
|------------------------------|--------------------------|
|-------------------------------|----------------------------|
|-------------------------------|----------------------------|
|-------------------------------|----------------------------|
|-9p=7-----11p7-----9p7-------7-|--9p=7-----11p7-----9p7-----|
|------8p7------8p7-----8-7-8---|-------7h8------8p7-----8p7-|
|-------------------------------|----------------------------|
|-------------------------------|----------------------------|
|-------------------------------|----------------------------|
|-------------------------------|----------------------------|
|-2-----------------------------|-(2)------------------------|
|-2-----------------------------|-(2)------------------------|
|-0-----------------------------|-(0)------------------------|
|------------------------------|--------------------------|
|------------------------------|--------------------------|
|------------------------------|--------------------------|
|-9p7-----11p7-----9p7-------7-|-9p7-----11p7-----9p7-----|
|-----8p7------8p7-----8-7-8---|-----7h8------8p7-----8p7-|
|------------------------------|--------------------------|
|------------------------------|--------------------------|
|------------------------------|--------------------------|
|------------------------------|--------------------------|
|-7----------------------------|--------------------------|
|-5----------------------------|--------------------------|
|-5----------------------------|--------------------------|
|-------------------------------|----------------------------|
|-------------------------------|----------------------------|
|-------------------------------|----------------------------|
|-9p=7-----11p7-----9p7-------7-|--9p=7-----11p7-----9p7-----|
|------8p7------8p7-----8-7-8---|-------7h8------8p7-----8p7-|
|-------------------------------|----------------------------|
|-------------------------------|----------------------------|
|-------------------------------|----------------------------|
|-------------------------------|----------------------------|
|-------------------------------|----------------------------|
|-4-----------------------------|-(4)------------------------|
|-------------------------------|----------------------------|
|------------------------------|--------------------------|
|------------------------------|--------------------------|
|------------------------------|--------------------------|
|-9p7-----11p7-----9p7-------7-|-9p7-----11p7-----9p7-----|
|-----8p7------8p7-----8-7-8---|-----7h8------8p7-----8p7-|
|------------------------------|--------------------------|
|------------------------------|--------------------------|
|------------------------------|--------------------------|
|------------------------------|--------------------------|
|------------------------------|--------------------------|
|-5----------------------------|--------------------------|
|-3----------------------------|--------------------------|
||--------------|-----------||
||o-------------|----------o||
||--------------|-----------||
||--------------|-----------||
||o-------5-7-8-|-7-----7--o||
||--0--0--------|----0------||
PM------------|
||--------------|------------------||
||o-------------|-----------------o||
||--------------|------------------||
||--------2h3-0-|------------------||
||o-2--2--2h3-0-|-2-2-2-2-2-2-2-2-o||
||--0--0--------|-0-0-0-0-0-0-0-0--||
PM------------|
||--------------|------------------||
||o-------------|-----------------o||
||--------------|------------------||
||--------2h3-0-|------------------||
||o-2--2--2h3-0-|-2-2-2-2-2-2-2-2-o||
||--0--0--------|-0-0-0-0-0-0-0-0--||
PM------------|
|-------------|-----------------|
|-------------|-----------------|
|-------------|-----------------|
|-------2h3-0-|-4-----4-4-----4-|
|-2--2--2h3-0-|-2-2-2-2-2-2-2-2-|
|-0--0--------|-----------------|
PM------------|
|-------------|-----------------|
|-------------|-----------------|
|-------------|-----------------|
|-------2h3-0-|-----------------|
|-2--2--2h3-0-|-2-2-2-2-2-2-2-2-|
|-0--0--------|-0-0-0-0-0-0-0-0-|
PM--------------------|
|-------------|-------------------------|
|-------------|-------------------------|
|-------------|-------------------------|
|-------2h3-0-|-5-------5-------4-------|
|-2--2--2h3-0-|-3-3-3-3-3-3-3-3-2-2-2-2-|
|-0--0--------|-------------------------|
PM------------|
|-------------|-----------------|
|-------------|-----------------|
|-------------|-----------------|
|-------2h3-0-|-6-------6-------|
|-2--2--2h3-0-|-4-4-4-4-4-4-4-4-|
|-0--0--------|-----------------|
PM--------------------|
|------------|-------------------------|
|------------|-------------------------|
|------------|-------------------------|
|-5--5--5--5-|-----------------4-----4-|
|-3--3--3--3-|-4-----4-5-----5-2-2-2-2-|
|------------|-2-2-2-2-3-3-3-3---------|
PM------------|
|-------------|-----------------|
|-------------|-----------------|
|-------------|-----------------|
|-------2h3-0-|-6-------6-------|
|-2--2--2h3-0-|-4-4-4-4-4-4-4-4-|
|-0--0--------|-----------------|
PM--------------------|
|------------|-------------------------|
|------------|-------------------------|
|------------|-------------------------|
|-5--5--5--5-|-------------------------|
|-3--3--3--3-|-4-----4-5-----5-7-----7-|
|------------|-2-2-2-2-3-3-3-3-5-5-5-5-|
PM------------|
||--------------------------||-------------|
||o------------------------o||-------------|
||--------------------------||-------------|
||--------------------------||-2-----------|
||o-----------------2------o||---3-2-------|
||--0-0-0-0-0-0-0-0-0-------||-------5-3-1-|
PM------------|
||--------------------------||-------------|
||o------------------------o||-------------|
||--------------------------||-------------|
||--------------------------||-2-----------|
||o-----------------2------o||---3-2-------|
||--0-0-0-0-0-0-0-0-0-------||-------5-3-1-|
   [5/4] E S S E E E E q  q    E S S E E E E q  q   4x
||----------------------|----------------------||
||o-8p7p5---5-7-8-7--5--|---------------------o||
||--------8-------------|---5h9p8p5--------5---||
||----------------------|-9---------9-7-9------||
||o---------------------|---------------------o||
||----------------------|----------------------||



4.
  PM---------------------------------|

  [s]  [s]  [s]   [s]  [E]  [s]  [s]  [s]  [s]  [E]  [s]  [s]  [s]  [s]  [s]  [s]  [s]  [s]                                                                          
|--------------------------------------|
|--------------------------------------|
|--------------------------------------|
|-9-9-7------7-7-5-----5-4-----2-1-----|
|-------10-9-------9-7-----7-6-----3-2-|
|--------------------------------------|



To Coda
7/8 6/8
  PM------------|            PM------------|

S s s s s s s s S S Q s s s s s s s s S S Q E E E E E E
|------------------------||--------------------------||--------------|
|------------------------||o------------------------o||--------------|
|------------------------||--------------------------||--------------|
|------------------------||--------------------------||-2------------|
|-3---------------2------||o-----------------2------o||---3-2--------|
|---0-0-0-0-0-0-0-0------||--0-0-0-0-0-0-0-0-0-------||-------5-3-1--|



D.S. al Coda
7/8 6/8
    PM------------|

s s s s s s s s S S Q 3x E E E E E E
||--------------------------||-------------|
||o------------------------o||-------------|
||--------------------------||-------------|
||--------------------------||-2-----------|
||o-----------------2------o||---3-2-------|
||--0-0-0-0-0-0-0-0-0-------||-------5-3-1-|



&
7/8 6/8
    PM------------|

s s s s s s s s S S Q 3x E E E E E E
||--------------------------||-------------|
||o------------------------o||-------------|
||--------------------------||-------------|
||--------------------------||-2-----------|
||o-----------------2------o||---3-2---2-3-|
||--0-0-0-0-0-0-0-0-0-------||-------5-----|



Guitar Solo 2:55
[7/4]                    ~~~
H +Q +E H..
|---------------------------------|
|---------------------------------|
|-8b10=====(8)r==(8)-6------------|
|---------------------------------|
|---------------------------------|
|---------------------------------|

|
| Gtr III
| H E E E Q Q Q E
|---------------------------------|
|---------------------------------|
|---------------------------------|
|---------------------------------|
|-----------2--4--5--4-------2--4-|
|---------------------------------|
|-2-----------------------2-------|



15/8
~~~~ ~~
  H]           [E]   [E]   [E]   [E]      E]     [E]   [B]      [E]                                                                    
|-------------------------------------------|
|-------------------------------------------|
|-(6)\---------10-11-13b15r(13)-11-10-------|
|----------/12------------------------------|
|-------------------------------------------|
|-------------------------------------------|

|
| q Q E E E E E E Q Q E
|-------------------------------------------|
|-------------------------------------------|
|-------------------------------------------|
|---------------------3b4r===3--------------|
|------------2--4--5-------------5--4--2----|
|-------------------------------------------|
|--2----2---------------------------------2-|



[7/4]   ~~~
H E E E E E E E Q +E
|-----------------------------------------|
|-/12-----12----9-12----9-12-12pb14r=(12)-|
|------------10---------------------------|
|--------------------11-------------------|
|-----------------------------------------|
|-----------------------------------------|

|
| q Q E E E Q Q Q E
|-----------------------------------------|
|-----------------------------------------|
|-----------------------------------------|
|-----------------------------------------|
|----------2--4-5--4----------2--------5--|
|-----------------------------------------|
|---2--2----------------2-----------------|



15/8
~~~~~ ~~~~ PM----|
H S. S. S S S S S S S Q S S S S s s s s
|--------------------------------------------------------------|
|-12b14--------[10]---9-10-9----9------------------------------|
|----------------------------11---10-11-[10]---7-6-7-6---6-----|
|------------------------------------------------------9---7-9-|
|--------------------------------------------------------------|
|--------------------------------------------------------------|

|
| q q E E E E E E E E E E E
|--------------------------------------------------------------|
|--------------------------------------------------------------|
|--------------------------------------------------------------|
|----------------------------/6----4------3--------------------|
|-----------2-------4----5-------------------5-4---4-----------|
|--4-----4---------------------------------------------2---2---|
|--2-----2-----------------------------------------------------|



[7/4] ~~~
Q.. S S S S S S S Q S S S S S S S S S S
|--------/13h16p13----16----13h16--16p13----16----13-17p13----13-|
|------------------15----15--------------15----15----------14----|
|-6--------------------------------------------------------------|
|----------------------------------------------------------------|
|----------------------------------------------------------------|
|----------------------------------------------------------------|

|
| Q Q E E E Q Q Q E
|----------------------------------------------------------------|
|----------------------------------------------------------------|
|----------------------------------------------------------------|
|----------------------------------------------------------------|
|-------------2-----4-----5-----4--------------------------------|
|-----------------------------------------------2-----------5----|
|-2----2----------------------------2-----------0-----------3----|



15/8
S S S S S S E +T T S S S S S S S S a S S a S S S S a S S a S S S S S
|-19p16----19----16h19-(19)\---21p17----16h19p16----19-16-16h19-19p16-------16-13-13h16-16p13-------13----|
|-------18----18-------------x-------18----------18-------------------18p15-------------------15p12----12-|
|---------------------------------------------------------------------------------------------------------|
|---------------------------------------------------------------------------------------------------------|
|---------------------------------------------------------------------------------------------------------|
|---------------------------------------------------------------------------------------------------------|

|
| q q E E E E E E Q Q E
|---------------------------------------------------------------------------------------------------------|
|---------------------------------------------------------------------------------------------------------|
|---------------------------------------------------------------------------------------------------------|
|---------------------------------------------/4-----3----------------------------------------------------|
|------------------------2---------4-----5--------------------5--------4--------------2--------------4----|
|--4-----------4------------------------------------------------------------------------------------------|
|--2-----------2------------------------------------------------------------------------------------------|



[7/4]   ~~~~~~~~~                 ~
         |------6------|           |-----6-----|

Q +S S S S S S Q Q +S S S S S S Q E. T T
|-/13--(13)p10p9--------------9---(9)p7--------------------------|
|----------------13p10p9----------------10p9p6-------/10----9h10-|
|------------------------10--------------------7p6---------------|
|----------------------------------------------------------------|
|----------------------------------------------------------------|
|----------------------------------------------------------------|

|
| Q Q E E E Q Q Q E
|----------------------------------------------------------------|
|----------------------------------------------------------------|
|----------------------------------------------------------------|
|----------------------------------------------------------------|
|-------------------------2-4-5-4--------------------------------|
|--------------------------------------------------2------5------|
|---2----2---------------------------------2-------0------3------|



15/8
T T T T Q. S S S S S S S S S S S S S S S S S S S S S S
|---------------------------------------------------------------------19-21-22-21-|
|-9h10p9h10p9------------------------------------------------19-21-22-------------|
|-----------------------------------------13-14-16-/18-19-22----------------------|
|------------------------7-9-11-/12-15-16-----------------------------------------|
|-----------------8-9-11----------------------------------------------------------|
|---------------------------------------------------------------------------------|

|
| q q E E E E E E E E E E E
|---------------------------------------------------------------------------------|
|---------------------------------------------------------------------------------|
|---------------------------------------------------------------------------------|
|--------------------------------/6-----4-----3-----------------------------------|
|-----------------2----4---5-------------------------5-----4-----4----------------|
|-4------------4-------------------------------------------------------2-----2----|
|-2------------2------------------------------------------------------------------|



Breakdown 3:17
7/8
+E H.
|-(21)\-----------------------------------------|
|-----------------------------------------------|
|-----------------------------------------------|
|-----------------------------------------------|
|-----------------------------------------------|
|-----------------------------------------------|

|
| Gtr II
| S S S S S S S S S S S S S S
|-----------------------------------------------|
|--17p==15--------------------------------------|
|----------16--14-19p16-------16p14----------14-|
|-----------------------19-15-------15-14-15----|
|-----------------------------------------------|
|-----------------------------------------------|



H..
|-------------------------------------------|
|-------------------------------------------|
|-------------------------------------------|
|-------------------------------------------|
|-------------------------------------------|
|-------------------------------------------|

|
| S S S S S S S S S S S S S S
|-------------------------------------------|
|-------------------------------------------|
|-16p==14-------14p10-------10p9---------10-|
|---------15-14-------14-12------12-9-12----|
|-------------------------------------------|
|-------------------------------------------|



Gtr II
S S S S S S S S S S S S S S S S S S S S S S S S S S S S
|--------------------------------------|------------------------------|
|--------------------------------------|------------------------------|
|-14p10-------10p9-------9p7---------7-|-9p7------7p5p4---5p4p2-----2-|
|-------14-12------12-10-----10-9-10---|-----10-9-------7-------3-5---|
|--------------------------------------|------------------------------|
|--------------------------------------|------------------------------|



6/8
                             PM------------|

S S S S S S S S S S Q s s s s s s s s S S Q E E E E E E
|------------------------||--------------------------||-------------|
|------------------------||o------------------------o||-------------|
|------------------------||--------------------------||-------------|
|-2----------------------||--------------------------||-2-----------|
|-----------------2------||o-----------------2------o||---3-2-------|
|---0-0-0-0-0-0-0-0------||--0-0-0-0-0-0-0-0-0-------||-------5-3-1-|



7/8 6/8
    PM------------|

s s s s s s s s S S Q 3x E E E E E E
||--------------------------||-------------|
||o------------------------o||-------------|
||--------------------------||-------------|
||--------------------------||-2-----------|
||o-----------------2------o||---3-2-----3-|
||--0-0-0-0-0-0-0-0-0-------||-------3-5---|



Keyboard Solo 3:33
7/4 15/8
Gtr III
PM-| PM-|
q q E E E Q Q Q E q q E E E E E E Q Q E
|------------------------|-----------------------------|
|------------------------|-----------------------------|
|------------------------|-----------------------------|
|------------------------|-------------/2-1------------|
|-------0-2-3-2-----0--3-|-------0-2-3------3-2--0--3--|
|-------------------0----|--------------------------3--|
|-0--0-----------0-------|-0--0------------------------|



7/4 15/8
PM-| PM-|
q q E E E Q Q Q E q q E E E E E E Q E E E
|------------------------|------------------------------|
|------------------------|------------------------------|
|------------------------|------------------------------|
|------------------------|-------------/4-2-1----2-1----|
|-------0-2-3-2-----0--3-|-------0-2-3--------2------3--|
|-------------------0----|------------------------------|
|-0--0-----------0-------|-0--0-------------------------|



7/4 15/8
PM-| PM-|
q q E E E Q Q Q E q q E E E E E E Q Q E
|------------------------|-----------------------------|
|------------------------|-----------------------------|
|------------------------|-----------------------------|
|------------------------|-------------/2-1------------|
|-------0-2-3-2-----0--3-|-------0-2-3------3-2--0--3--|
|-------------------0----|-----------------------------|
|-0--0-----------0-------|-0--0------------------------|



7/4 15/8
PM-| PM-|
q q E E E Q Q Q E q q E E E E E E Q E E E
|------------------------|------------------------------|
|------------------------|------------------------------|
|------------------------|------------------------------|
|------------------------|-------------/4-2-1-----------|
|-------0-2-3-2-----0--3-|-------0-2-3--------2--2-4-5--|
|-------------------0----|------------------------------|
|-0--0-----------0-------|-0--0-------------------------|



Breakdown 3:54
7/8
Gtr II
S S S S S S S S S S S S S S
|-------------------------------------------|
|-17p15-------------------------------------|
|-------16-14-19p16-------16p14----------14-|
|-------------------19-15-------15-14-15----|
|-------------------------------------------|
|-------------------------------------------|



S S S S S S S S S S S S S S
|-----------------------------------------|
|-----------------------------------------|
|-16p14-------14p10-------10p9---------10-|
|-------15-14-------14-12------12-9-12----|
|-----------------------------------------|
|-----------------------------------------|



S S S S S S S S S S S S S S S S S S S S S S S S S S S S
|--------------------------------------|------------------------------|
|--------------------------------------|------------------------------|
|-14p10-------10p9-------9p7---------7-|-9p7------7p5p4---5p4p2-----2-|
|-------14-12------12-10-----10-9-10---|-----10-9-------7-------3-5---|
|--------------------------------------|------------------------------|
|--------------------------------------|------------------------------|



7/8
H.. +H Q. H..
|-----------|--------------|--------|
|-----------|--------------|--------|
|-----------|--------------|--------|
|-2---------|-(2)----------|--------|
|-----------|--------------|--------|
|-----------|--------------|--------|

|
| Gtr III
| H.. +H Q. H..
|-----------|--------------|--------|
|-----------|--------------|--------|
|-----------|--------------|--------|
|-----------|--------------|--------|
|-----------|--------/2----|-5------|
|-0---------|-(0)----------|--------|
|-----------|--------------|--------|



Gtr III
H Q. H.. +H Q.
|-----------|-----------|-------------|
|-----------|-----------|-------------|
|-----------|-----------|-------------|
|-----------|-----------|-------------|
|-----------|-----------|-------------|
|-4----5----|-7---------|-(7)----1----|
|-----------|-----------|-------------|



H.. H Q.
|-----------|-----------|
|-----------|-----------|
|-----------|-----------|
|-----------|-----------|
|-----------|-----------|
|-4---------|------1----|
|-----------|-3---------|



6/8
Gtr I
    PM------------|

s s s s s s s s S S Q 3x E E E E E E
||--------------------------||-------------|
||o------------------------o||-------------|
||--------------------------||-------------|
||--------------------------||-2-----------|
||o-----------------2------o||---3-2-------|
||--0-0-0-0-0-0-0-0-0-------||-------5-3-1-|



7/8 6/8
    PM------------|

s s s s s s s s S S Q 3x E E E E E E
||--------------------------||-------------|
||o------------------------o||-------------|
||--------------------------||-------------|
||--------------------------||-2-----------|
||o-----------------2------o||---3-2-------|
||--0-0-0-0-0-0-0-0-0-------||-------5-3-1-|



7/8
Gtr III
H.. +H Q. H..
|-----------|--------------|---------|
|-----------|--------------|---------|
|-----------|--------------|---------|
|-----------|--------------|---------|
|-----------|--------/5----|-/8------|
|-3---------|-(3)----------|---------|
|-----------|--------------|---------|



H Q. H.. +H Q.
|-----------|------------|-------------|
|-----------|------------|-------------|
|-----------|------------|-------------|
|-----------|------------|-------------|
|-4----5----|-/7---------|-(7)----2----|
|-----------|------------|-------------|
|-----------|------------|-------------|



~~~
H.. H Q.
|-----------|-----------|
|-----------|-----------|
|-----------|-----------|
|-----------|-----------|
|-5---------|-----------|
|-----------|-4----1----|
|-----------|-----------|



6/8
Gtr I
    PM------------|

s s s s s s s s S S Q 3x E E E E E E
||--------------------------||-------------|
||o------------------------o||-------------|
||--------------------------||-------------|
||--------------------------||-2-----------|
||o-----------------2------o||---3-2-------|
||--0-0-0-0-0-0-0-0-0-------||-------5-3-1-|



7/8 5/8
    PM------------|

s s s s s s s s S S Q 3x E E E E E
||--------------------------||-----------|
||o------------------------o||-----------|
||--------------------------||-----------|
||--------------------------||-2---------|
||o-----------------2------o||---3-2-----|
||--0-0-0-0-0-0-0-0-0-------||-------5-3-|



Outro 4:39
[4/4] Gtr III
S S S S S S S S S S S S S S S S S S S S S S S S S S S S T T S S S
|---------------------------------|---------------------------------------|
|---------------------------------|---------------------------------------|
|---------------------------------|---------------7----7-10-9-9-7----7-10-|
|-------------------------3-2-----|---3-2-3-6-7-9---10------------10------|
|---------------0-2-5-3-5-----5-3-|-5-------------------------------------|
|-------1-0-1-4-------------------|---------------------------------------|
|-3-1-3---------------------------|---------------------------------------|



[4/4] S T T  S S S  S S S S S S  S  S  S  S  S
|------------------------------------------|
|------------------------------------------|
|-9-9-7------7------------7-10-------13-14-|
|-------10-9---10-9-7-6-9------14-15-------|
|------------------------------------------|
|------------------------------------------|
|------------------------------------------|



S S S S S S S S S S S S S S S S
|-------------------------------------------16-19-|
|----------------------------13-15-18-17-18-------|
|-16-14-13----------13-14-16----------------------|
|----------15-14-15-------------------------------|
|-------------------------------------------------|
|-------------------------------------------------|
|-------------------------------------------------|



[4/4]  ~~~~~~~~~~~~~~~~~~~~~~~~~~~~~~~~~~~~~~~~~~~~~~~~~~~~~~~~~~~~~~~
W +W +W +W +W
|-17--------|-(17)-------------|-(17)--------|-(17)--------|-(17)----*|
|-----------|------------------|-------------|-------------|---------*|
|-----------|------------------|-------------|-------------|---------*|
|-----------|------------------|-------------|-------------|---------*|
|-----------|------------------|-------------|-------------|---------*|
|-----------|------------------|-------------|-------------|---------*|
|-----------|------------------|-------------|-------------|---------*|

|
| Gtr IV
| |-3--| |-3-|
| W Q Q Q Q Q Q W +W +W
|-----------|---0--0-0-0-0-0---|---0---------|--(0)--------|--(0)----*|
|-----------|---0--0-0-0-0-0---|---0---------|--(0)--------|--(0)----*|
|-----------|---2--2-2-2-2-2---|---2---------|--(2)--------|--(2)----*|
|-----------|---2--2-2-2-2-2---|---2---------|--(2)--------|--(2)----*|
|-----------|---0--0-0-0-0-0---|---0---------|--(0)--------|--(0)----*|
|-----------|------------------|-------------|-------------|---------*|



Duration Legend
---------------
W - whole; H - half; Q - quarter; E - 8th; S - 16th; T - 32nd; X - 64th; a - acciaccatura

+ - note tied to previous; . - note dotted; .. - note double dotted
Uncapitalized letters represent notes that are staccato (1/2 duration)
Irregular groupings are notated above the duration line
Duration letters will always appear directly above the note/fret number it represents the
duration for. Duration letters with no fret number below them represent rests. Multi-
bar rests are notated in the form Wxn, where n is the number of bars to rest for. Low
melody durations appear below the staff

Tablature Legend
----------------

h - hammer-on
p - pull-off
b - bend
pb - pre-bend
r - bend release (if no number after the r, then release immediately)
/\ - slide into or out of (from/to "nowhere")
s - legato slide
S - shift slide
- natural harmonic
(n) - artificial harmonic
n(n) - tapped harmonic
~ - vibrato
tr - trill
T - tap
TP - trem. picking
PM - palm muting
\n/ - tremolo bar dip; n = amount to dip
\n - tremolo bar down
n/ - tremolo bar up
/n\ - tremolo bar inverted dip
= - hold bend; also acts as connecting device for hammers/pulls
<> - volume swell (louder/softer)
x - on rhythm slash represents muted slash
o - on rhythm slash represents single note slash

Misc Legend
-----------

| - bar
|| - double bar
||o - repeat start
o|| - repeat end
*| - double bar (ending)
: - bar (freetime)
$ - Segno
& - Coda
Tempo markers - = BPM(8/16=s8/s16), where s8 = swing 8ths, s16 = swing 16ths


***************************************************************************************
* Generated using Power Tab Editor by Brad Larsen - http://powertab.guitarnetwork.org *
***************************************************************************************

Important: The song above is NOT stored on the Chordie server. The original song is hosted at www.xguitar.com. Chordie works as a search engine and provides on-the-fly formatting. Chordie does not index songs against artists'/composers' will. To remove this song please click here.

Text color:
Chord color:
Chord grids: 
Font size:    
Page size: 

B E
variations - click chord images

Login - add to songbook

Transpose chords

Tuning

Rating click stars to rate

Layout
Accuracy

SHARE PAGE  




You need to log in to post comments