As I Am

Dream Theater

c -|---------------------------------|

G -|---------------------------------|
Eb-|---------9-----9~----------------|
Bb-|-2-------9-----8~----------------|
F -|-2-------7-----7~----------------|
C -|-0-------------------------------|
c -|---------------------------------|
G -|---------------------------------|
Eb-|---------------------------------|
Bb-|---------------------------------|
F -|---------7---7-------------------|
C -|-0---------0---6~-----<<<<<<<<<<-|
c -|---------------------------------|
G -|---------------------------------|
Eb-|---------------------------------|
Bb-|---------------------------------|
F -|---------7---7-------7-----7-5---|
C -|-0-0-0-0---0---6~------5~----3---|
c -|----------------|----------------|----------------|-----------------|
G -|----------------|----------------|----------------|-----------------|
Eb-|----------------|----------------|----------------|-----------------|
Bb-|----------------|----------------|----------------|-----------------|
F -|-2-------8758758|-7-------8758757|---------8758758|-7-------555-333-|
C -|-0-0-0-0--------|---0-0-0--------|-0-0-0-0--------|---0-0-0-333-111-|
b-|----------------|----------------|----------------|-----------------|
G-|----------------|----------------|----------------|-----------------|
D-|----------------|----------------|----------------|-----------------|
A-|----------------|----------------|----------------|---------------4-|
E-|-2-------8758758|-7-------8758757|---------8758758|-7-------555-332-|
B-|-0-0-0-0--------|---0-0-0--------|-0-0-0-0--------|---0-0-0-333-11--|
c -|---------------|-------------------|--------------|---------------|
G -|---------------|-------------------|--------------|---------------|
Eb-|-----4-------4-|-----4-------4---4-|-----4-------4|-----4-----4---|
Bb-|---4-------4---|---4-------4-------|---4-------4--|---4-----4-----|
F -|-2-------------|---------0-----3---|-2------------|---------------|
C -|---------3-----|-2-----------------|---------3----|-2-----0-------|
c -|---------------|-----------------------|---------------|-----------------|
G -|---------------|-----------------------|---------------|-----------------|
Eb-|-----4-------4-|-----4-------4-----4---|-----4-------4-|-----4-----4-----|
Bb-|---4-------4---|---4-------4-----4-----|---4-------4---|---4-----4-------|
F -|-2-------------|---------0-----3-------|-2-------------|-----------------|
C -|---------3-----|-2---------------------|---------3-----|-2-----0---------|
c -|---------------|-------------------|--------------|---------------|
G -|---------------|-------------------|--------------|---------------|
Eb-|-----4-------4-|-----4-------4---4-|-----4-------4|-----4-----4---|
Bb-|---4-------4---|---4-------4-------|---4-------4--|---4-----4-----|
F -|-2-------------|---------0-----3---|-2------------|---------------|
C -|---------3-----|-2-----------------|---------3----|-2-----0-------|
c -|---------------|-----------------------|---------------|-----------------------|
G -|---------------|-----------------------|---------------|-----------------------|
Eb-|-----4-------4-|-----4-------4-----4---|-----4-------4-|-----4-----4-----------|
Bb-|---4-------4---|---4-------4-----4-----|---4-------4---|---4-----4-------------|
F -|-2-------------|---------0-----3-------|-2-------------|-------3---------------|
C -|---------3-----|-2---------------------|---------3-----|-2-----1---------------|
c -|---------------|---------------|---------------|
G -|---------------|---------------|---------------|
Eb-|---------------|---------------|---------------|
Bb-|-2-------------|---------------|---------------|
F -|-2-------------|-----------2---|-----------2---|
C -|-0---------0-2-|-3-----------3-|-2-----------3-|

  first ending  second ending 
9:8 9:8
 -------------------|     -------------------|
 -------------------|     -------------------|
 -------------------|     -------------------|
 -------------------|     ---------5---5---5-|
 -----(3fb5r3)--2---|     -3---3---3---3---3-|
 -1---------------3-|     -1---1-------------|

v v v v v v v v v v v v v v v v v v

7:8 8:8 8:8
c -|---------------|-----------------|-----------------|
G -|-------0-------|-----0-----0-----|-------0---0-----|
Eb-|-------4-------|-----4-----4-----|-------4---4-----|
Bb-|-2---2---2-----|---------2-------|-----2---2-------|
F -|-2-2-----------|---2---2-----2---|---2---------2---|
C -|-0---------0-2-|-3-------------3-|-2-------------3-|

v v v v v v v v v v v v v v v v v v v v v v v

  first ending  second ending 
9:8 7:4
 -------------------|     ---------------|
 -------------------|     ---------------|
 -------------------|     ---------------|
 -------------------|     ---------5---5-|
 -----(3fb5r3)--2---|     -3---3---3---3-|
 -1---------------3-|     -1---1---------|

v v v v v v v v v v v v v v v v

[  Main Riff  ]
Vers 2 (3:26)

4:4 . . . ...... . . . ...... . . . . ...... . . . ... ...
c -|----------------|----------------|----------------|-----------------|
G -|----------------|----------------|----------------|-----------------|
Eb-|----------------|----------------|----------------|-----------------|
Bb-|----------------|----------------|----------------|-----------------|
F -|-2-------8758758|-7-------8758757|---------8758758|-7-------555-333-|
C -|-0-0-0-0--------|---0-0-0--------|-0-0-0-0--------|---0-0-0-333-111-|

v v v v v v v v v v v v v v v v

4:4 . . . ...... 7:8 . . . ...... 4:4 . . . ...... 4:4 . . . ... ..
b-|-----------------|----------------|----------------|-----------------|
G-|-----------------|----------------|----------------|-----------------|
D-|-----------------|----------------|----------------|-----------------|
A-|-----------------|----------------|----------------|---------------4-|
E-|-2-------8758758-|-7-------875875-|-7-------8758758|-7-------555-332-|
B-|-0-0-0-0---------|---0-0-0--------|---0-0-0--------|---0-0-0-333-11--|

v v v v v v v v v v v v v v v v

[  Bridge  ][  Pre-Chorus  ][  Chorus  ]
Bridge 2 (4:54)

7:8 9:8 7:8
c -|---------------|-------------------|---------------|
G -|---------------|-------------------|---------------|
Eb-|---------------|-------------------|---------------|
Bb-|-2-------------|-------------------|---------------|
F -|-2-------------|-------------------|-----------5-4-|
C -|-0-------------|(6)~-----------0-1-|(2)~-----------|

v v v v v v v v v v v v v v v v v v v v v v v

  first/tbird ending  second ending  fourtb ending 
9:8 9:8 7:8
-------------------|    -------------------|   ---------------|
-------------------|    -------------------|   ---------------|
-------------------|    -------------------|   ---------------|
-------------------|    ------------(5)~---|   -5---5---5---5-|
(3)~---------------|    (3)~----(6)--------|   -3---3---3---3-|
---------------2-3|     -------------------|   ---------------|

v v v v v v v v v v v v v v v v v v v v v v v v v

Solo part (second guitar) (5:23)
(bass transcribed to guitar)

8:4
c -|---------------------------------|
G -|---------------------------------|
Eb-|---------------7-----------------|
Bb-|-2-------5-----5-----7hb8r75-----|
F -|-0-------3---------7-------------|
C -|-----------------------------3/4-|

v v v v v v v v

  first ending  second ending/fourtb ending 
8:4 8:4
---------------------------------|  ---------------------------------|
---------------------------------|  ---------------------------------|
---------------------------------|  ---------------------------------|
-2-------5-----------------------|  -2-------5-----------------------|
-0-------3-----5-----------------|  -0-------3-----5-----------------|
---------------3-----------0-3-0-|  ---------------3---0-3-0---0-3-0-|

v v v v v v v v v v v v v v v v

  tbird ending 
8:4
---------------------------------|
---------------------------------|
---------------------------------|
-2-------5-----------------------|
-0-------3-----5-----------------|
---------------3---0-3-0-3210----|

v v v v v v v v

[  Solo Part played with Main riff  ]
Drum Solo (6:08)

7:8
c -|-0-------------|-0-------------|-0-------------|-0-------------|
G -|-0-------------|-0-------------|-0-------------|-0-------------|
Eb-|-4-------------|-4-------------|-4-------------|-4-------------|
Bb-|-2-------------|-5-------------|-4-------------|-3-------------|
F -|-2-------------|-5-------------|-4-------------|-3-------------|
C -|-0-------------|-3-------------|-2-------------|-1-------------|

v v v v v v v v v v v v v v v v v v v v v v v v v v v v

7:8
c -|-0-------------|-10-------------|-9------------|-8---8---8---8-|
G -|-0-------------|-10-------------|-9------------|-8---8---8---8-|
Eb-|-4-------------|-12-------------|-11-----------|-10--10--10--10|
Bb-|-2-------------|-12-------------|-11-----------|-10--10--10--10|
F -|-2-------------|-10-------------|-9------------|-8---8---8---8-|
C -|-0-------------|----------------|--------------|---------------|

v v v v v v v v v v v v v v v v v v v v v v v v v v v v

[  Chorus  ][  Main Riff  ]
End (7:18)

c -|--------
G -|-12-----
Eb-|-9------
Bb-|-9------
F -|-7------
C -|-0------


Song fades to 7:47..


variations - click chord images
Transpose chords:
Tuning:
Cool service:
View: Size:
A  A  A
Rating:
Layout:
  • Currently 0/5 Stars.
  • 1
  • 2
  • 3
  • 4
  • 5
 
Accuracy:
  • Currently 3/5 Stars.
  • 1
  • 2
  • 3
  • 4
  • 5
 
click stars to rate
Chordie recommends:
Learn how to play guitar at JamPlay.com
Songbook:
Login to add this song to your songbook
Support the artist
Preview/buy this song
MSN Music
Why this non-profit ad?

 
login to add comments/video/corrections