Guitar Tabs, Chords and Lyrics


As I Am    Dream Theater


c -|---------------------------------|








G -|---------------------------------|








Eb-|---------9-----9~----------------|



Bb-|-2-------9-----8~----------------|



F -|-2-------7-----7~----------------|



C -|-0-------------------------------|



c -|---------------------------------|



G -|---------------------------------|



Eb-|---------------------------------|



Bb-|---------------------------------|



F -|---------7---7-------------------|



C -|-0---------0---6~-----

Important: The song above is NOT stored on the Chordie server. The original song is hosted at www.xguitar.com. Chordie works as a search engine and provides on-the-fly formatting. Chordie does not index songs against artists/composers will. To remove this song please click here.

This song is displayed as text-only. Transposing and tuning is only available for chordpro-songs.

Login - add to songbook

Rating click stars to rate

Layout
Accuracy

SHARE PAGE  




You need to log in to post comments