Guitar Tabs, Chords and Lyrics


Fields of Athenry    Dropkick Murphys



Song: Fields of Athenry
By: Dropkick Murphy's
Tabbed By: Kevin

Intro
(Let Ring)
E|---------------------------------------
B|-------------1111-0--------------------
G|-3333--5-3----------3--1--1------------
D|---------------------------------------
A|---------------------------------------
E|---------------------------------------


Verse
1st & 2nd time PM
Verse after guitar solo play open
E|-------------------------------------------------------------
B|-------------------------------------------------------------
G|-8-888--88-8-----------------8-888--88-8---3-333--33-3-------
D|-8-888--88-8---4-444--44-4---8-888--88-8---3-333--33-3-------
A|-6-666--66-6---4-444--44-4---6-666--66-6---1-111--11-1-------
E|---------------2-222--22-2-----------------------------------
pm......................................................|
On lonely...


E|-----------------------------------------------
B|-----------------------------------------------
G|-8-888--88-8-----------------3-333--33-3-------
D|-8-888--88-8---4-444--44-4---3-333--33-3-------
A|-6-666--66-6---4-444--44-4---1-111--11-1-------
E|---------------2-222--22-2---------------------
pm........................................|
Michael they have...


E|-------------------------------------------------------------
B|-------------------------------------------------------------
G|-8-888--88-8-----------------8-888--88-8---3-333--33-3-------
D|-8-888--88-8---4-444--44-4---8-888--88-8---3-333--33-3-------
A|-6-666--66-6---4-444--44-4---6-666--66-6---1-111--11-1-------
E|---------------2-222--22-2-----------------------------------
pm......................................................|
For you stole...


E|-----------------------------------------------
B|-----------------------------------------------
G|-3-333--33-3--3-333--33-3---8-888--88-8--------
D|-3-333--33-3--3-333--33-3---8-888--88-8--------
A|-1-111--11-1--1-111--11-1---6-666--66-6--------
E|-----------------------------------------------
pm.......................................|
Now A prison...


Chorus
E|------------------------------------------
B|------------------------------------------
G|-88888888------------88888888--55555555---
D|-88888888--44444444--88888888--55555555---
A|-66666666--44444444--66666666--33333333---
E|-----------22222222-----------------------
Low lie...


E|------------------------------------------
B|------------------------------------------
G|-88888888------------33333333--33333333---
D|-88888888--44444444--33333333--33333333---
A|-66666666--44444444--11111111--11111111---
E|-----------22222222-----------------------
For once...

E|------------------------------------------
B|------------------------------------------
G|-88888888------------88888888--33333333---
D|-88888888--44444444--88888888--33333333---
A|-66666666--44444444--66666666--11111111---
E|-----------22222222-----------------------
Our love...

E|-------------------------------------------------
B|-------------------------------------------------
G|-33333333--33333333--88888888--88888888----------
D|-33333333--33333333--88888888--88888888----------
A|-11111111--11111111--66666666--66666666----------
E|-------------------------------------------------
So lonely...


Solo
E|-------------------------------------------------------------
B|-------------------------------------------------------------
G|-3---5-3-1---0--0---------0--00---0---3---1-1---0------------
D|--------------3-----1-1-3-------3----------------3---1-3-----
A|-------------------------------------------------------------
E|-------------------------------------------------------------


E|----------------------------------------------------------
B|----------------------------------------------------------
G|-3-3--5-3-1---0--0---1-1-------------0---1-1--0-----------
D|--------------3---------1-3---3-3-----3--------3-1-1------
A|----------------------------------------------------------
E|----------------------------------------------------------

E|--------------------------
B|--------------------------
G|---------0---1-1--0-------
D|--3-3-----3--------3-1-1--
A|--------------------------
E|--------------------------
Chords After The End Of The Bagpipe Solo
E|-------------------------------------------------------------
B|-------------------------------------------------------------
G|-8-888--88-8-----------------8-888--88-8---3-333--33-3-------
D|-8-888--88-8---4-444--44-4---8-888--88-8---3-333--33-3-------
A|-6-666--66-6---4-444--44-4---6-666--66-6---1-111--11-1-------
E|---------------2-222--22-2-----------------------------------
pm......................................................|



Order

Intro
Verse (PM)
Chorus
Verse (PM)
Chorus
Solo
Verse (Open)
Bagpipe Solo


Important: The song above is NOT stored on the Chordie server. The original song is hosted at www.xguitar.com. Chordie works as a search engine and provides on-the-fly formatting. Chordie does not index songs against artists'/composers' will. To remove this song please click here.

This song is displayed as text-only. Transposing and tuning is only available for chordpro-songs.

Login - add to songbook

Rating click stars to rate

Layout
Accuracy

SHARE PAGE  




You need to log in to post comments