Guitar Tabs, Chords and Lyrics


Gonna Be a Blackout Tonight    Dropkick Murphys



Song: gonna be a blackout tonight
Artist: dropkick murphys
Album: blackout

Name and Email: jonathan

Additional Info:

Tuning: E, A, D, G, B, E,

bass line
|--------------------------------------------------------------|
|--------------------------------------------------------------|
|--------------------------------------------------------------|
|----9----676--------------------------------------------------|
|7-77-7-55---5-------------------------------------------------|
|--------------------------------------------------------------|

|--------------------------------------------------------------|
|--------------------------------------------------------------|
|9--9--9--7--9--7--99-77-99-77-99-77-99------------------------|
|x--x--x--x--x--x--xx-xx-xx-xx-xx-xx-xx-77777-5----------------|
|7--7--7--5--7--5--77-55-77-55-77-55-77-77777-5----------------|
|---------------------------------------55555-3----------------|

|--------------------------------------------------------------|
|--------------------------------------------------------------|
|999999997777777799999999--------------------------------------|
|------------------------77777-5-------------------------------|
|77777777555555557777777777777-5-------------------------------|
|------------------------55555-3-------------------------------|

|--------------------------------------------------------------|
|--------------------------------------------------------------|
|99999999-77777777-9999999999999999----------------------------|
|--------------------------------------------------------------|
|77777777-55555555-7777777777777777----------------------------|
|--------------------------------------------------------------|

|--------------------------------------------------------------|
|--------------------------------------------------------------|
|99999999-77777777---------------------------------------------|
|------------------77777777-99999999---------------------------|
|77777777-55555555-77777777-99999999---------------------------|
|------------------55555555-77777777---------------------------|

|--------------------------------------------------------------|
|--------------------------------------------------------------|
|99999999-77777777-9999999999999999----------------------------|
|--------------------------------------------------------------|
|77777777-55555555-7777777777777777----------------------------|
|--------------------------------------------------------------|

|--------------------------------------------------------------|
|--------------------------------------------------------------|
|99999999-77777777---------------------------------------------|
|------------------77777777-9----------------------------------|
|77777777-55555555-77777777-9----------------------------------|
|------------------55555555-7----------------------------------|
chorus  2x
|---------------|----------------------------------------------|
|---------------|--32x----------32x---------------------------|
|77777777-------|9------------7----8---------------------------|
|--------7777755|-----99999-7------8---------------------------|
|555555557777755|7----99999-7-5----6---------------------------|
|--------5555533|-----77777-5----------------------------------|
verse
|--------------------------------------------------------------|
|--------------------------------------------------------------|
|99999999-77777777-9999999999999999----------------------------|
|--------------------------------------------------------------|
|77777777-55555555-7777777777777777----------------------------|
|--------------------------------------------------------------|

|--------------------------------------------------------------|
|--------------------------------------------------------------|
|99999999-77777777---------------------------------------------|
|------------------77777777-9----------------------------------|
|77777777-55555555-77777777-9----------------------------------|
|------------------55555555-7----------------------------------|

chorus  2x
|---------------|----------------------------------------------|
|---------------|--32x----------32x---------------------------|
|77777777-------|9------------7----8---------------------------|
|--------7777755|-----99999-7------8---------------------------|
|555555557777755|7----99999-7-5----6---------------------------|
|--------5555533|-----77777-5----------------------------------|
breakdown 2x
--------------------------------------------------------------|
|--------------------------------------------------------------|
|9-7-5-4-------------------------------------------------------|
|--------------------------------------------------------------|
|7-5-3-2-------------------------------------------------------|
|--------------------------------------------------------------|


Important: The song above is NOT stored on the Chordie server. The original song is hosted at www.xguitar.com. Chordie works as a search engine and provides on-the-fly formatting. Chordie does not index songs against artists'/composers' will. To remove this song please click here.

This song is displayed as text-only. Transposing and tuning is only available for chordpro-songs.

Login - add to songbook

Rating click stars to rate

Layout
Accuracy

SHARE PAGE  




You need to log in to post comments