Guitar Tabs, Chords and Lyrics


The Outcast   Dropkick Murphys

If I can break the law will the law break [Eb]me?
f Bb
It comes tumbling down again, I can't comprehend, is it destiny
Eb f Bb
Your nomadic state, are you a refugee, no place to call your home
Eb f
Forever walk alone as the world goes on,
For[Bb]gotten by the ones you've known

Chorus: x2
Eb f
And all the words you gave me
[Bb]I lost on bended knee
Eb f
But you can't stop these cravings
Just by [Bb]praying they would cease

Fill: (played on 2nd, "...praying they would cease)
e----------------------------------------|
B----------------------------------------|
G--9/10--10-10-10-10--9/10--10-10-10-10--|
D--7/-8---8--8--8--8--7/-8---8--8--8--8--|
A----------------------------------------|
E----------------------------------------|


Eb,f,Bb x2

Verse 2: (follow song's rythm)
Eb f Bb
If I can make a life then I can take a life
If I can save a life will this life save [Eb]me
f Bb
Time after time I still seem to find you're looking out for me
Eb f Bb
So wrap your arms around me, hold me close and don't let go
Eb f Bb
Let me lean on you as I think things through, if I don't we'll never know

Chorus x2

Bridge:
[Eb]    [Bb]    [F] Will your faith save me
[Eb]Will I [Bb]find this place where [F]I belong
[Eb]Can you pro[Bb]tect me from my [F]troubles, keep me safe from harm
[Eb]Will you [Bb]help me carry [F]on

Fill 2: (during, "Will you help..")
e-----------------11/13-13-13-13-13-13-13--|
B-----------------11/13-13-13-13-13-13-13--|
G------------------------------------------|
D------------------------------------------|
A--6---11--10--8---------------------------|
E------------------------------------------|


Chorus x2

Verse 1

End with Eb

That's it! For suggestions, corrections, and requests, email me:
oddmenout4@yahoo.com

Important: The song above is NOT stored on the Chordie server. The original song is hosted at www.xguitar.com. Chordie works as a search engine and provides on-the-fly formatting. Chordie does not index songs against artists'/composers' will. To remove this song please click here.

Text color:
Chord color:
Chord grids: 
Font size:    
Page size: 

Bb Eb F
variations - click chord images

Login - add to songbook

Transpose chords

Tuning

Rating click stars to rate

Layout
Accuracy

SHARE PAGE  




You need to log in to post comments