Guitar Tabs, Chords and Lyrics


Time To Go    Dropkick Murphys



Dropkick Murphys
Blackout
Time to Go
Standard tuning

email ihave_a_d_d@hotmail.com if you think im full of ***.

Intro (Transcribed Accordeon)
|--------------------------------------------------
|-----------------------------------------8--------
|--9-7----10-9-7------------9-7----10-9-7----7-----
|------10--------10-7-10--------10-----------------
|------------------------10------------------------
|--------------------------------------------------

|--------------------------------------------------
|--------------------------------------------------
|--9-7----10-9-7-----------------------7-9---------
|------10--------10-7-10--------7-9-10-----10-9-10-
|------------------------10--10--------------------
|--------------------------------------------------

Guitar Intro & Chorus
|------------------------------------------------
|------------------------------------------------
|--555555--------555555555555555555--------------
|--555555-333333-555555555555555555-333333-555555    x2
|--333333-333333-333333333333333333-333333-555555
|---------111111--------------------111111-333333

"Go! Go! Black and Gold!" (boston bruins colors if you didnt know ;)

      1st time        2nd & 3rd Time
|-----/888888~ --------/8~ ----------------------
|-----/888888~ ------- /8~ 8-6-------------------
|------------------------------8-5---------------
|------------------------------------------------
|------------------------------------------------
|------------------------------------------------

Verse
|-------------------------------------------------------
|-------------------------------------------------------
|---------------555555----------------------------555555
|--333333333333-555555-555555-333333333333-555555-555555  x2
|--333333333333-333333-555555-333333333333-555555-333333
|--111111111111--------333333-111111111111-333333-------

After 2nd Chorus
|--------------
|--------------
|-------5-x----
|--5--3-5-x---- x 6 or 8...
|--5--3-3-x----
|--3--1--------



Important: The song above is NOT stored on the Chordie server. The original song is hosted at www.xguitar.com. Chordie works as a search engine and provides on-the-fly formatting. Chordie does not index songs against artists'/composers' will. To remove this song please click here.

This song is displayed as text-only. Transposing and tuning is only available for chordpro-songs.

Login - add to songbook

Rating click stars to rate

Layout
Accuracy

SHARE PAGE  




You need to log in to post comments