Guitar Tabs, Chords and Lyrics


Worker's Song    Dropkick Murphys



Intro
Guitar 1

Riff 1     Riff 2
e|-------| |---------------------------------------|
B|-------| |---------------------------------------|
G|-------| |-----------0-2-3---0-2-3---------------|
D|-------| |-----------------3-------3-0-----------|
A|-5-3-1-| |-1---1-1-1-------------------1-3-5-3-1-|
E|-------| |---------------------------------------|

Intro
Guitar 2

At the same time with Riff 2 from the Guitar 1 Intro
e|------------------------------|
B|------------------------------|
G|-------8-------8-------10-----|
D|-8-----8---8---8---8---10---8-|
A|-8-----6---8---6---8---8----8-|
E|-6---------6-------6--------6-|


Verse
Guitar 1 & 2

palm muted
e|------------------------------|
B|------------------------------|
G|-------8-------8---10---10x10-|
D|-8-----8---8---8---10---10x10-|
A|-8-----6---8---6---8----8-x8--|
E|-6---------6------------------|

e|------------------------------|
B|------------------------------|
G|-------8-------8-------10-----|
D|-8-----8---8---8---8---10---8-|
A|-8-----6---8---6---8---8----8-|
E|-6---------6-------6--------6-|


Guitar 1

Riff 1     Riff 2
e|-------| |---------------------------------------|
B|-------| |---------------------------------------|
G|-------| |-----------0-2-3---0-2-3---------------|
D|-------| |-----------------3-------3-0-----------|
A|-5-3-1-| |-1---1-1-1-------------------1-3-5-3-1-|
E|-------| |---------------------------------------|

Guitar 2
At the same time with Riff 2 from the Guitar 1
e|------------------------------|
B|------------------------------|
G|-------8-------8-------10-----|
D|-8-----8---8---8---8---10---8-|
A|-8-----6---8---6---8---8----8-|
E|-6---------6-------6--------6-|


Verse
Guitar 1 & 2

palm muted
e|------------------------------|
B|------------------------------|
G|-------8-------8---10---10x10-|
D|-8-----8---8---8---10---10x10-|
A|-8-----6---8---6---8----8-x8--|
E|-6---------6------------------|

e|------------------------------|
B|------------------------------|
G|-------8-------8-------10-----|
D|-8-----8---8---8---8---10---8-|
A|-8-----6---8---6---8---8----8-|
E|-6---------6-------6--------6-|


Chorus
Guitar 1 & 2

e|--------------------------|
B|--------------------------|
G|-------8-------8---10-----|
D|-8-----8---8---8---10-----|
A|-8-----6---8---6---8------|
E|-6---------6--------------|

e|------------------------------|
B|------------------------------|
G|-------8-------8-------10-----|
D|-8-----8---8---8---8---10---8-|
A|-8-----6---8---6---8---8----8-|
E|-6---------6-------6--------6-|


Chorus
Guitar 1

e|-------11-11-11-11-11-11-11-13----13-----13-------|
B|---7-9-11-11-11-11-11-11-11-13b15----^15----13p11-|
G|-8------------------------------------------------|
D|--------------------------------------------------|
A|--------------------------------------------------|
E|--------------------------------------------------|

e|------11-11-11-11-11-11-11-------------------|
B|-11-9-11-11-11-11-11-11-11-------------------|
G|---------------------------------10-12-------|
D|---------------------------11-12-------11-12-|
A|---------------------------------------------|
E|---------------------------------------------|

e|-------------11-11-11-11-11-11-11-11-11-11-11-11-11-11-11-11-|
B|-13b15-13p11-11-11-11-11-11-11-11-11-11-11-11-11-11-11-11-11-|
G|-------------------------------------------------------------|
D|-------------------------------------------------------------|
A|-------------------------------------------------------------|
E|-------------------------------------------------------------|

e|----------------------------------------------|
B|-13-15----13-15----13-15----13-15----13-15----|
G|-------15-------15-------15-------15-------15-|
D|----------------------------------------------|
A|----------------------------------------------|
E|----------------------------------------------|


Guitar 1
Riff 2
e|---------------------------------------|
B|---------------------------------------|
G|-----------0-2-3---0-2-3---------------|
D|-----------------3-------3-0-----------|
A|-1---1-1-1-------------------1-3-5-3-1-|
E|---------------------------------------|

Guitar 2
At the same time with Riff 2 above
e|------------------------------|
B|------------------------------|
G|-------8-------8-------10-----|
D|-8-----8---8---8---8---10---8-|
A|-8-----6---8---6---8---8----8-|
E|-6---------6-------6--------6-|


Solo
Guitar 2

e|--------------------------|
B|--------------------------|
G|-------8-------8---10-----|
D|-8-----8---8---8---10-----|
A|-8-----6---8---6---8------|
E|-6---------6--------------|

Solo
Guitar 1

e|--------------------------|
B|--------------------------|
G|---------------8x--10-----|
D|---------------8x--10-----|
A|---------------6x--8------|
E|--------------------------|

Solo
Guitar 1 & 2

palm muted
e|------------------------------|
B|------------------------------|
G|-------8-------8-------10-----|
D|-8-----8---8---8---8---10---8-|
A|-8-----6---8---6---8---8----8-|
E|-6---------6-------6--------6-|


Chorus
Guitar 1 & 2

e|--------------------------|
B|--------------------------|
G|-------8-------8---10-----|
D|-8-----8---8---8---10-----|
A|-8-----6---8---6---8------|
E|-6---------6--------------|

e|------------------------------|
B|------------------------------|
G|-------8-------8-------10-----|
D|-8-----8---8---8---8---10---8-|
A|-8-----6---8---6---8---8----8-|
E|-6---------6-------6--------6-|


Verse
Guitar 2

e|---------------------------------|
B|---------------------------------|
G|---------------------------------|
D|-8-------------------------------|
A|-8-------------------------------|
E|-6-------------------------------|

Guitar 1

e|---------------------------------|
B|---------------------------------|
G|---------0-2-3---0-2-3-3-5-5-7-5-|
D|-3-0-----------3-----------------|
A|-----3-1-------------------------|
E|---------------------------------|

Guitar 2

e|-------------------------------------|
B|-------------------------------------|
G|-------------------------------------|
D|-8---------------------------------8-|
A|-8---------------------------------8-|
E|-6---------------------------------6-|

Guitar 1

e|-------------------------------------|
B|-------------------------------------|
G|---------0-2-3---0-2-3---------------|
D|-3-0-----------3-------3-0-----------|
A|-----3-1-------------------1-3-5-3-1-|
E|-------------------------------------|

End
e|------|
B|------|
G|------|
D|-8-8x-|
A|-8-8x-|


Important: The song above is NOT stored on the Chordie server. The original song is hosted at www.xguitar.com. Chordie works as a search engine and provides on-the-fly formatting. Chordie does not index songs against artists'/composers' will. To remove this song please click here.

This song is displayed as text-only. Transposing and tuning is only available for chordpro-songs.

Login - add to songbook

Rating click stars to rate

Layout
Accuracy

SHARE PAGE  




You need to log in to post comments