Guitar Tabs, Chords and Lyrics


World Full of Hate    Dropkick Murphys



Hey, this is like my first tab, I think it is right, rate it please, correct it if it is needed, thanks, peace out girl scout, ha ha ha

Chords:  G       C       AM      D
-----------3-----0-------0-------2-----------------------------------------
-----------0-----1-------1-------3------------------------------------------
-----------0-----0-------2-------2-----------------------------------------
-----------0-----2-------2-------0------------------------------------------
-----------2-----3-------0-------------------------------------------------
-----------3-------------0-----------------------------------------------



INTRO  (guitar 1)
E------------------------------------------------------------------------------------
B------------------------------------------------------------------------------------
G--------------------------------------------------------------------------0-0-
D--0-----------------------0---0---0--2-2-2-2--0---------------------2---------------
A---------2--0-------0--2-----------------------------3-----0--2--3------------------
E----------------3-------------------------------------------------------------------
					TO


E-----------------------------------------------------------------------------
B----------------------------------------------------------------------------
G--------------0-0----------------------------------------------------------
D---------2-----------------------------------------------------------------
A-----3---------------3---2---0--------------------------------------------
E--------------------------------------3---5--------------------------------


Whole song  (guitar 2)
 Calypso strum all chords

G     C   AM  C  C  G  D.   Do this many times over.

Short Break
------------------------------------
------------------------------------
------------------------------------
------------------------------------
----3--2--0-----------------------
---------------3--5---------------
Guitar 1 order:			Guitar 2 order:
Intro				Whole Song
Short Break


Important: The song above is NOT stored on the Chordie server. The original song is hosted at www.xguitar.com. Chordie works as a search engine and provides on-the-fly formatting. Chordie does not index songs against artists'/composers' will. To remove this song please click here.

This song is displayed as text-only. Transposing and tuning is only available for chordpro-songs.

Login - add to songbook

Rating click stars to rate

Layout
Accuracy

SHARE PAGE  




You need to log in to post comments