Guitar Tabs, Chords and Lyrics


3rd Man In    Dropkick Murphys



Song: 3rd man in
Artist: Dropkick Murphys
Album: Do or die

Email: seneblink@comcast.net

Additional Info:

Tuning: E, A, D, G, B, E,

intro3x
|-------------|------------------------------------------------|
|-------------|------------------------------------------------|
|-------------|------------------------------------------------|
|1010-99-77-55|-5----------------------------------------------|
|-------------|-5----------------------------------------------|
|8-8--77-55-33|-3----------------------------------------------|
intro pt 2     |ends after 2x like this
|--------------|-----------------------------------------------|
|--------------|-----------------------------------------------|
|----------5---|-----------------------------------------------|
|5---7---3-5-5-|5-3-5------------------------------------------|
|5---7---3-3-5-|5-3-5------------------------------------------|
|3---5---1---3-|3-1-3------------------------------------------|
verse
|--------------------------------------------------------------|
|--------------------------------------------------------------|
|------------------5-555555-7-777777---------------------------|
|3-333333-5-555555-5-555555-7-777777---------------------------|
|3-333333-5-555555-3-333333-5-555555---------------------------|
|1-111111-3-333333---------------------------------------------|
verse pt2
|--------------------------------------------------------------|
|--------------------------------------------------------------|
|------------------5-555555-5-555555---------------------------|
|3-333333-5-555555-5-555555-5-555555---------------------------|
|3-333333-5-555555-3-333333-3-333333---------------------------|
|1-111111-3-333333---------------------------------------------|

repeat intro pt 2

repeat both verses2x

repeat intro pt 2

repeat both verses2x

repeat intro pt 2 8x
solo
|--------------------------------------------------------------|
|--------------------------------------------------------------|
|--------------------------------------------------------------|
|3-5-7-8-7-5-7-5-7-3-slide-and-reapeat-1x----------------------|
|--------------------------------------------------------------|
|--------------------------------------------------------------|

|---------------------------------------------------------------
|---------------------------------------------------------------
|5-5-7-5-3-5-2-3-3-7-5-3-5-------------------------------------|
|--------------------------------------------------------------|
|--------------------------------------------------------------|
|--------------------------------------------------------------|



Important: The song above is NOT stored on the Chordie server. The original song is hosted at www.xguitar.com. Chordie works as a search engine and provides on-the-fly formatting. Chordie does not index songs against artists'/composers' will. To remove this song please click here.

This song is displayed as text-only. Transposing and tuning is only available for chordpro-songs.

Login - add to songbook

Rating click stars to rate

Layout
Accuracy

SHARE PAGE  




You need to log in to post comments