Guitar Tabs, Chords and Lyrics


Barroom Hero    Dropkick Murphys



Artist: Dropkick Murphys
Song: Barroom Hero
Album: Do or Die
E-Mail: beefynerd@www.com
Tabbed by Jeremy Burgess

This song is incredibly easy, and it only consists of 3 power chords.  Here are two ways to play this song:

Verses (method one):

E|-------------------------------------
B|-------------------------------------
G|-5---5--10---5--10--5---12---10--5---
D|-5---5--10---5--10--5---12---10--5---
A|-3---3--8----3--8---3---10---8---3---
E|-------------------------------------

Verses (method two):

E|-----------------------------------
B|---------6------6------8---6-------
G|-5---5---5--5---5--5---7---5---5---
D|-5---5---3--5---3--5---5---3---5---
A|-3---3------3------3-----------3---
E|-----------------------------------

Chorus (method one):

E|--------------------------------------
B|--------------------------------------
G|-10--5--12---5---10--5---12--10---5---
D|-10--5--12---5---10--5---12--10---5---
A|-8---3--10---3---8---3---10--8----3---
E|--------------------------------------

Chorus (method two):

E|-------------------------------------
B|-6-------8-------6-------8---6-------
G|-5---5---7---5---5---5---7---5---5---
D|-3---5---5---5---3---5---5---3---5---
A|-----3-------3-------3-----------3---
E|-------------------------------------



Important: The song above is NOT stored on the Chordie server. The original song is hosted at www.xguitar.com. Chordie works as a search engine and provides on-the-fly formatting. Chordie does not index songs against artists'/composers' will. To remove this song please click here.

This song is displayed as text-only. Transposing and tuning is only available for chordpro-songs.

Login - add to songbook

Rating click stars to rate

Layout
Accuracy

SHARE PAGE  




You need to log in to post comments