Guitar Tabs, Chords and Lyrics


Cadence to Arms    Dropkick Murphys



***************1ST TAB OF CADENCE TO ARMS***************



-------------------------------------------------------

           CADENCE TO ARMS - DROPKICK MURPHY'S

-------------------------------------------------------

Info in part supplied by: KBoston98@aol.com

Transcribed by: Andy Weber BarroomHero@hotmail.com

Enjoy!



Intro: Strum back and forth on the 3X ones

E-------------------------------------------------

B-------------------------------------------------

G-------------------------------------------------

D--7-7-7---7-7-7---7-7-7---7----------------------

A--7-7-7---7-7-7---7-7-7---7----------------------

E--5-5-5---5-5-5---5-5-5---5----------------------



Chorus: Play 2X

E-------------------------------------------------

B-------------------------------------------------

G----------7--------------------------------------

D--7-------7-(4X)-7-------------------------------

A--7-(8X)--5------7-(4X)--------------------------

E--5--------------5-------------------------------



Verse: Play 8X

E-------------------------------------------------

B-------------------------------------------------

G--4----------------------------------------------

D--4-(8X)-----------------------------------------

A--2----------------------------------------------

E-------------------------------------------------



CHORUS: play same



VERSE: play same



======================================================

There ya go!  Great song (nice ring) - Enjoy!

Andy Weber, BarroomHero@hotmail.com



***************2ND TAB OF CADENCE TO ARMS***************



Transcribed by

ShindigOi@aol.com

                             Enjoy!



I only wrote the chord progressions though since I'm really lazy but it should

help you out alot..........you should really check them though since I really

suck at guitar and probally messed up alot........



I only wrote the chord progressions though since I'm really lazy but it should

help you out alot..........you should really check them though since I really

suck at guitar and probally messed up alot........



Cadence to Arms:  A5, D5, EII



***************3RD TAB OF CADENCE TO ARMS***************



Cadence to arms:

   Verse:AAAAAAAA DDDD AAAA

   Chorus-type-thingy: eeeeeeeeeee



I hope these aren't too far off.  Please let me know what you think, or



Important: The song above is NOT stored on the Chordie server. The original song is hosted at www.xguitar.com. Chordie works as a search engine and provides on-the-fly formatting. Chordie does not index songs against artists'/composers' will. To remove this song please click here.

This song is displayed as text-only. Transposing and tuning is only available for chordpro-songs.

Login - add to songbook

Rating click stars to rate

Layout
Accuracy

SHARE PAGE  




You need to log in to post comments