Guitar Tabs, Chords and Lyrics


Caught in a Jar   Dropkick Murphys

-------------------------------------------------------



-------------------------------------------------------

   [C]           [F]         [C]          [G]    
E-------------------------------------------|
B------1---1----1---1----1---(1p)0--0----0--|
G------0---0----2---2----0-------0--0----0--|
D--------2----3---3----2---2----------------|
A--2h3--(3)--(3)-(3)---3---3-----------2----|
E-------------------------------------------|



verse:

    [C]        [F]         [C]         [G]       
E---------------------------------------|
B----1---1----1---1---1---(1p)0--0---0--|
G----0---0----2---2---0-------0--0---0--|
D-----------3---3-----------------------|
A--3---3------------3---3----------2----|
E---------------------------------------|



chorus:

   [C]         [F]         [C]       [G]         
E--0-0-0-0--1-1-1-1--0-0-0--3-3-3--|--3...--|
B--1-1-1-1--1-1-1-1--1-1-1--3-3-3--|--3...--|
G--0-0-0-0--2-2-2-2--0-0-0--0-0-0--|--0...--|
D--2-2-2-2--3-3-3-3--2-2-2--0-0-0--|--0...--|
A--3-3-3-3--3-3-3-3--3-3-3--2-2-2--|--2...--|
E---------------------------3-3-3--|--3...--|



bridge/solo:

E--0--3-1-0-1-0--1-------3-1-0-1---------------|
B--1---------------3--1----------3-1---1----1--|
G--0------------------0--------------2---0--0--|
D--2----------------------------------------2--|
A--3----------------------------------------3--|
E----------------------------------------------|



end: G, C


well, thats basically it. might be some minor mistakes but, i doubt it.

There ya go! Great song (nice ring) - Enjoy!


Andy Weber

AndyWeber@dropkickmurphys.com


***************2ND TAB OF CAUGHT IN A JAR***************


-------------------------------------------------------


Transcribed by

ShindigOi@aol.com

Enjoy!


I only wrote the chord progressions though since I'm really lazy but it should

help you out alot..........you should really check them though since I really

suck at guitar and probally messed up alot........


I only wrote the chord progressions though since I'm really lazy but it should

help you out alot..........you should really check them though since I really

suck at guitar and probally messed up alot........


Caught in a Jar: (chorus): C5, G5, A5, F5

Important: The song above is NOT stored on the Chordie server. The original song is hosted at www.xguitar.com. Chordie works as a search engine and provides on-the-fly formatting. Chordie does not index songs against artists'/composers' will. To remove this song please click here.

Text color:
Chord color:
Chord grids: 
Font size:    
Page size: 

C F G
variations - click chord images

Login - add to songbook

Transpose chords

Tuning

Rating click stars to rate

Layout
Accuracy

SHARE PAGE  




You need to log in to post comments