Guitar Tabs, Chords and Lyrics


Far Away Coast    Dropkick Murphys



Album: Do or Die

Name and Email: Jonathan/

Additional Info:

Tuning: E, A, D, G, B, E,


Picallo Part
|7-10-8-7-5-3-2-0---0-3-5-3-2-0--------------------------------|
|-----------------3--------------------------------------------|
|--------------------------------------------------------------|
|--------------------------------------------------------------|
|--------------------------------------------------------------|
|--------------------------------------------------------------|

Intro/ Verse

|3-3333-0-0000-0-0000-2-2222----------------------------------|
|3-3333-1-1111-1-1111-3-3333----------------------------------|
|0-0000-0-0000-2-2222-2-2222----------------------------------|
|0-0000-2-2222-2-2222-0-0000----------------------------------|
|2-2222-3-3333-0-0000-----------------------------------------|
|3-3333-------------------------------------------------------|

Chorus
|000000000-333-000000000-333-000000000-333-000000000000--------|
|111111111-333-111111111-333-111111111-333-111111111111--------|
|222222222-000-222222222-000-222222222-000-222222222222--------|
|222222222-000-222222222-000-222222222-000-222222222222--------|
|000000333-222-000000333-222-000000333-222-000000000000--------|
|----------333-----------333-----------333---------------------|

Bridge
|2-2222-3-3333-2-2222--000-------------------------------------|
|3-3333-3-3333-3-3333--333-------------------------------------|
|2-2222-2-2222-2-2222--000-------------------------------------|
|----------------------2---------------------------------------|
|-----------------------30-------------------------------------|


Important: The song above is NOT stored on the Chordie server. The original song is hosted at www.xguitar.com. Chordie works as a search engine and provides on-the-fly formatting. Chordie does not index songs against artists'/composers' will. To remove this song please click here.

This song is displayed as text-only. Transposing and tuning is only available for chordpro-songs.

Login - add to songbook

Rating click stars to rate

Layout
Accuracy

SHARE PAGE  




You need to log in to post comments