Guitar Tabs, Chords and Lyrics


Memories Remain   Dropkick Murphys

e--------------------------|--------------------------|


B--------------------------|--2-2--2-2-2--3-3--3-3-3--|


G--14---9---7-7-9-9--------|--2-2--2-2-2--2-2--2-2-2--|

D--14---9---7-7-9-9-7-7-7--|--2-2--2-2-2--2-2--2-2-2--|
A--12---7---5-5-7-7-7-7-7--|--0-0--0-0-0--0-0--0-0-0--|
E-------------------5-5-5--|--------------------------|
Well we [A]started shootin' hoops, now we're [D]sippin' Black and Tans
A e
From the park to the pub was the course we ran
The [A]times have changed but friends remain, my [D]heart and soul's with you
D/ e D/ e D/ e
'Cause one thing's for sure I always swore I'd never turn my back on (you)

[A]Never turned our back stuck to[D]gether through and through
A e
The times have changed but my heart and soul's with you
[A]Wouldn't turn your backs and you [D]didn't walk away
D/ e D/ e D/ e
We'd never run, we stand as one, and this is what we (say)

Chorus:
A~ E~
Times were TOUGH, but the memories remain
A~ E~
Situations ROUGH, but we overcame
A~ E~
Side by side, one for ALL, together we grew
D e (Fill)
'Cause when it's said and done, I'll look back on friends like you

Verse 2:
Well, [A]I was down, and I was out, and [D]no one liked my games
A e
One too many fights and bloody nights for which I was too blame
But you [A]wouldn't turn your backs and you [D]didn't walk away
D/ e D/ e D/ e
Cause we'd never run, we stand as one until this very day

[A]Never turned our back stuck to[D]gether through and through
A e
The times have changed but my heart and soul's with you
[A]Wouldn't turn your backs and you [D]didn't walk away
D/ e D/ e D/ e
We'd never run, we stand as one, until this very (day)

Chorus x1

Solo:
e-------------------------------------------------------------------|
B-------------------------------------------------------------------|
G-------------------------------------------------------------------|
D--7~--9-7---7~--9-7---7~--------7~--9-7---7~----7-11--9--------7~--|
A----------9---------9-----9-7~----------9-----9---------11--7------|
E-------------------------------------------------------------------|


Chorus x1

Outro (play verse chords with, "Like you.., Like you...," etc)

A,D,A-D-A

That's it! For suggestions, corrections, and requests, email me:
oddmenout4@yahoo.com

Important: The song above is NOT stored on the Chordie server. The original song is hosted at www.xguitar.com. Chordie works as a search engine and provides on-the-fly formatting. Chordie does not index songs against artists'/composers' will. To remove this song please click here.

Text color:
Chord color:
Chord grids: 
Font size:    
Page size: 

A D
variations - click chord images

Login - add to songbook

Transpose chords

Tuning

Rating click stars to rate

Layout
Accuracy

SHARE PAGE  




You need to log in to post comments