Guitar Tabs, Chords and Lyrics


Never Alone    Dropkick Murphys



***************1ST TAB OF NEVER ALONE***************



-------------------------------------------------------

           NEVER ALONE - DROPKICK MURPHY'S

-------------------------------------------------------



Transcribed by Andy Weber

BarroomHero@hotmail.com

                             Enjoy!



Intro: 1X



E-------------------------------------------------

B-------------------------------------------------

G-------------------------------------------------

D------------2020202020-----------2020202020------

A-2020202020------------2020202020----------------

E-------------------------------------------------



Verse: Play 1X

            You say its because were boisterous...

E-------------------------------------------------

B-------------------------------------------------

G-------------------------------------------------

D------------2020202020------------2020202020-----

A-2020202020------------2020202020----------------

E-------------------------------------------------



E-------------------------------------------------

B-------------------------------------------------

G--------10---------------------------------------

D-10-----10------5--7--9--5--7--9--9---------------

A-10-(8X)-8-(8X)-5--7--9--5--7--9--9---------------

E--8-------------3--5--7--3--5--7--7---------------



Chorus: Play 3X

                                   Never Alone....

E-------------------------------------------------

B-------------------------------------------------

G--7--7--9----------------------------------------

D--7--7--9--5------7------------------------------

A--5--5--7--5-(4X)-7-(4X)-------------------------

E-----------3------5------------------------------

                      THEN

E-------------------------------------------------

B-------------------------------------------------

G--7--7--7----------------------------------------

D--7--7--7--5------7--7--9------------------------

A--5--5--7--5-(4X)-7--7--9------------------------

E-----------3------5--5--7------------------------



Verse: Young skinhead, they call you a hooligan....



Chorus: Never Alone................................



Riff: Twangy Sound between

D---7slide9h



Verse: Don't need no gang to watch my ass

        (No guitar till the second half of verse)



Chorus: Never Alone.........



Chorus: Never Alone.........



Riff: Twangy Sound

D---7slide9h





=======================================================

     There ya go!  Great song (nice ring) - Enjoy!



                       Andy Weber

               AndyWeber@Dropkickmurphys.com



***************2nd TAB OF NEVER ALONE***************



-----------------------------------------------------------------------------

                         Never Alone - The Dropkick Murphys

-----------------------------------------------------------------------------



By: Skot beaudoin; 



h=hammer on

p=pull off

.../.. = just strumm or hit the chord once and hold



intro/Verse:

e|------------------------------------------------|

B|------------------------------------------------|

G|------------------------------------------------|

D|------------------------------------------------|

A|-------------------------7--5h7--5h7-5h7p5h7p5--|

E|--7--5h7--5h7-5h7p5h7p5-------------------------|



"theres a differance..."

e|--------------|

B|--------9...--|

G|--6...--9...--|

D|--9...--9...--|

A|--9...--7...--|

E|--7...--------|



"we got loyal friends..."

e|-----------------|

B|-----------------|

G|--6..--6..--6..--|

D|--5..--7..--9..--|

A|--5..--7..--9..--|

E|--3..--5..--7..--|



chorus:

e|-----------------------------------|--------|

B|-----------------------------------|--------|

G|--7-7-7--9--9-9--------------------|--------|

D|--7-7-7--9--9-9--5-5-5-5--7-7-7-7--|--9...--|

A|--5-5-5--7--7-7--5-5-5-5--7-7-7-7--|--9...--|

E|-----------------3-3-3-3--5-5-5-5--|--7...--|



if ive ***ed anything up, lemme know -> beaudk (at) comcat (dot) com



Important: The song above is NOT stored on the Chordie server. The original song is hosted at www.xguitar.com. Chordie works as a search engine and provides on-the-fly formatting. Chordie does not index songs against artists'/composers' will. To remove this song please click here.

This song is displayed as text-only. Transposing and tuning is only available for chordpro-songs.

Login - add to songbook

Rating click stars to rate

Layout
Accuracy

SHARE PAGE  




You need to log in to post comments