Guitar Tabs, Chords and Lyrics


Noble    Dropkick Murphys



***************1ST TAB OF NOBLE***************



DROPKICK MURPHYS - Noble

----------------------------





----------------------------



Verse:



----X-------X--------X--------X--           on this you have to stop most of

the

----X-------X--------X--------X--           time cuz it's only the bass

playing for

----8-------X--------X--------X--           a lot of it (playing same thing)

----8-------5--------10-------8--

----6-------5--------10-------8--

----X-------3--------8--------6---



intro guitar thingy:



----------------------------------

----------------------------------

--6666666666--99999--88888  x2

----------------------------------

----------------------------------

----------------------------------



chorus:



--X---------X----------X

--X---------X----------X

--8---------X----------X

--8---------10---------8

--6---------10---------8

--X---------8----------6



This is completely right and it was tabbed by tommy lang.



***************2ND TAB OF NOBLE***************



-------------------------------------------------------

Transcribed by

ShindigOi@aol.com

                             Enjoy!



I only wrote the chord progressions though since I'm really lazy but it should

help you out alot..........you should really check them though since I really

suck at guitar and probally messed up alot........



I only wrote the chord progressions though since I'm really lazy but it should

help you out alot..........you should really check them though since I really

suck at guitar and probally messed up alot........



Noble:  D5, B5, DII(?), A5

(chorus):  D5, B5, A5



***************3RD TAB OF NOBLE***************



Noble: (It's impossible to type ou the strumming pattern, but this is

the best I can do)

   Main line+Verse: DD E F#F#F# BBBB AA

   pre-chorus: (palm-muted) GGGGGGG F#F#F#

   Chorus: DDD BBBB AAA AAA

   Final Chorus: eee C#C#C#C# BBB BBB

   End: A B C# D eeee



I hope these aren't too far off.  Please let me know what you think, or



Important: The song above is NOT stored on the Chordie server. The original song is hosted at www.xguitar.com. Chordie works as a search engine and provides on-the-fly formatting. Chordie does not index songs against artists'/composers' will. To remove this song please click here.

This song is displayed as text-only. Transposing and tuning is only available for chordpro-songs.

Login - add to songbook

Rating click stars to rate

Layout
Accuracy

SHARE PAGE  




You need to log in to post comments