Guitar Tabs, Chords and Lyrics


Boston Asphalt    Dropkick Murphys



Band: Dropkick Murphys
Song: Boston Asphalt
Tabbed By: Lanex 13

INTRO:
e|---------------------------------------------------------------------------|
B|---------------------------------------------------------------------------|
G|--5-5---5------------5-----------------------------------------------------|
D|--5-5---5--3-3---3---5--5-5------------------------------------------------| twice
A|--3-3---3--3-3---3---3--5-5------------------------------------------------|
E|-----------1-1---1------3-3------------------------------------------------|

VERSE:
e|---------------------------------------------------------------------------|
B|---------------------------------------------------------------------------
G|--5-------5----------------------------------------------------------------|
D|--5---3---5---5------------------------------------------------------------|
A|--3---3---3---5------------------------------------------------------------|
E|------1-------3------------------------------------------------------------|

CHORUS:
e|---------------------------------------------------------------------------|
B|---------------------------------------------------------------------------|
G|-----------5---------------------------------------------------------------|
D|---3---5---5---5---3---5---------------------------------------------------|
A|---3---5---3---5---3---5---------------------------------------------------|
E|---1---3-------3---1---3---------------------------------------------------|

OUTRO:
e|---------------------------------------------------------------------------|
B|---------------------------------------------------------------------------|
G|----------------5----------------------------------------------------------|
D|--3----------5--5----------------------------------------------------------|
A|--3----------5--3----------------------------------------------------------|


Important: The song above is NOT stored on the Chordie server. The original song is hosted at www.xguitar.com. Chordie works as a search engine and provides on-the-fly formatting. Chordie does not index songs against artists'/composers' will. To remove this song please click here.

This song is displayed as text-only. Transposing and tuning is only available for chordpro-songs.

Login - add to songbook

Rating click stars to rate

Layout
Accuracy

SHARE PAGE  




You need to log in to post comments