Guitar Tabs, Chords and Lyrics


Pipebomb on Lansdowne    Dropkick Murphys



-----------------------------------------------------------------------

Dropkick Murphys

-----------------------------------------------------------------------

Pipebomb on Lansdowne

-----------------------------------------------------------------------

Tabed by Ty Curtin (family9999@aol.com)       < ----

             (If anyone needs help or other DKM tabs)_|

-----------------------------------------------------------------------







(intro)

e]----------------------------------------------------------------------------

-------------------------

b]----------------------------------------------------------------------------

-------------------------

g]----------------------------------------------------------------------------

-------------------------

d]--4------7------9------4----------------------------------------------------

----------------------

a]--4------7------9------4----------------------------------------------------

----------------------

e]--2------5------7------2----------------------------------------------------

----------------------





e]----------------------------------------------------------------------------

-------------------------

b]----------------------------------------------------------------------------

-------------------------

g]-------------------------11-11-11-11-11-11----------------------------------

-----------------

d]--4------7------9------11-11-11-11-11-11------------------------------------

---------------

a]--4------7------9-------9---9---9--9--9---9---------------------------------

-------------------

e]--2------5------7-----------------------------------------------------------

-----------------------



(verse)(2x)

e]----------------------------------------------------------------------------

-------------------------

b]----------------------------------------------------------------------------

-------------------------

g]----------------------------------------------------------------------------

-------------------------

d]--4444--7777--9999--4444----------------------------------------------------

--------------

a]--4444--7777--9999--4444----------------------------------------------------

--------------

e]--2222--5555--7777--2222----------------------------------------------------

--------------





(chorus)(3x)

e]----------------------------------------------------------------------------

-------------------------

b]----------------------------------------------------------------------------

-------------------------

g]----------------------------------------------------------------------------

-------------------------

d]--4------2------4------999--7-6---------------------------------------------

--------------------

a]--4------2------4------999--7-6---------------------------------------------

-------------------

e]--2------0------2------777--5-4---------------------------------------------

-------------------





(verse)(3x)

e]----------------------------------------------------------------------------

-------------------------

b]----------------------------------------------------------------------------

-------------------------

g]----------------------------------------------------------------------------

-------------------------

d]--4444--7777--9999--4444----------------------------------------------------

--------------

a]--4444--7777--9999--4444----------------------------------------------------

--------------

e]--2222--5555--7777--2222----------------------------------------------------

--------------





(chorus)(3x)

e]----------------------------------------------------------------------------

-------------------------

b]----------------------------------------------------------------------------

-------------------------

g]----------------------------------------------------------------------------

-------------------------

d]--4------2------4------999--7-6--------4------------------------------------

------------------

a]--4------2------4------999--7-6--------4------------------------------------

------------------

e]--2------0------2------777--5-4--------2------------------------------------

------------------





e]----------------------------------------------------------------------------

-------------------------

b]----------------------------------------------------------------------------

-------------------------

g]----------------------------------------------------------------------------

-------------------------

d]--4------7------9------4----------------------------------------------------

----------------------

a]--4------7------9------4----------------------------------------------------

----------------------

e]--2------5------7------2----------------------------------------------------

----------------------





e]----------------------------------------------------------------------------

-------------------------

b]----------------------------------------------------------------------------

-------------------------

g]-------------------------11-11-11-11-11-11----------------------------------

-----------------

d]--4------7------9------11-11-11-11-11-11------------------------------------

---------------

a]--4------7------9-------9---9---9--9--9---9---------------------------------

-------------------

e]--2------5------7-----------------------------------------------------------

-----------------------





(verse)(2x)

e]----------------------------------------------------------------------------

-------------------------

b]----------------------------------------------------------------------------

-------------------------

g]----------------------------------------------------------------------------

-------------------------

d]--4444--7777--9999--4444----------------------------------------------------

--------------

a]--4444--7777--9999--4444----------------------------------------------------

--------------

e]--2222--5555--7777--2222----------------------------------------------------

--------------





(chorus)(3x)

e]----------------------------------------------------------------------------

-------------------------

b]----------------------------------------------------------------------------

-------------------------

g]----------------------------------------------------------------------------

-------------------------

d]--4------2------4------999--7-6---------------------------------------------

--------------------

a]--4------2------4------999--7-6---------------------------------------------

-------------------

e]--2------0------2------777--5-4---------------------------------------------

-------------------



(outro)

e]----------------------------------------------------------------------------

-------------------------

b]----------------------------------------------------------------------------

-------------------------

g]----------------------------------------------------------------------------

-------------------------

d]-999-7-6----999-7-6----4-----------9-7-6-4----------------------------------

--------------

a]-999-7-6----999-7-6----2-----------9-7-6-4----------------------------------

--------------

e]-777-5-4----777-5-4----2-----------7-5-4-2----------------------------------



Important: The song above is NOT stored on the Chordie server. The original song is hosted at www.xguitar.com. Chordie works as a search engine and provides on-the-fly formatting. Chordie does not index songs against artists'/composers' will. To remove this song please click here.

This song is displayed as text-only. Transposing and tuning is only available for chordpro-songs.

Login - add to songbook

Rating click stars to rate

Layout
Accuracy

SHARE PAGE  




You need to log in to post comments