Guitar Tabs, Chords and Lyrics


The Gang's All Here   Dropkick Murphys

|-------------------------------------------------------------------------


|-------------------------------------------------------------------------


|-------------------------------------------------------------------------

|-------------------------------------------------------------------------
|--------------5--7--5------5---------------5--7--5-----------------------
|----3--5--7------------7-------3--5--7-----------------------------------
|-------------------------------------------------------------------------
|-------------------------------------------------------------------------
|----------4--------------------------------------------------------------
|----5-----4-----7----5---------------------------------------------------
|----5-----2-----7----5---------------------------------------------------
|----3-----------5----3---------------------------------------------------
    [G]    [B]     [A]    [G]                    
Chorus:
|-------------------------------------------------------------------------
|-------------------------------------------------------------------------
|----5-------------7------------------------------------------------------
|----5------5------7----5-------------------------------------------------
|----3------5------5----5-------------------------------------------------
|-----------3-----------3-------------------------------------------------

    [C]     [G]      [D]    [G]                  
after the chorus you repeat the Intro then after the 3rd chorus i think it's just

[G]i d[D]unn[C]o y[G]ou'll figure it out.

-------------------------------------------------------------------------------


Important: The song above is NOT stored on the Chordie server. The original song is hosted at www.xguitar.com. Chordie works as a search engine and provides on-the-fly formatting. Chordie does not index songs against artists'/composers' will. To remove this song please click here.

Text color:
Chord color:
Chord grids: 
Font size:    
Page size: 

A B C D G
variations - click chord images

Login - add to songbook

Transpose chords

Tuning

Rating click stars to rate

Layout
Accuracy

SHARE PAGE  




You need to log in to post comments