Guitar Tabs, Chords and Lyrics


Upstarts and Broken Hearts    Dropkick Murphys



INTRO:
Guitar 1 plays:
C        F          G         C         G        F  (x2)


Guitar 2 plays:
e-----------------------------------------|
B-----------------------------------------|
G-5-5-5-5-------------5-5-5-5-------------|
D-5-5-5-5-3-3-3-5-5-5-5-5-5-5-5-5-5-3-3-3-|x2 THEN LET 3~
A-3-3-3-3-3-3-3-5-5-5-3-3-3-3-5-5-5-3-3-3-|            3~
E---------1-1-1-3-3-3---------3-3-3-1-1-1-|            1~

VERSE:
(...I once meet a young girl...)
C       F         G          C       G      F  (X2)

e-----------------------------------------------------------------|
B-----------------------------------------------------------------|
G-5-5-5-5-5-5-5-5-----------------5-5-5-5-5-5-5-5-----------------|
D-5-5-5-5-5-5-5-5-3-3-3-3-5-5-5-5-5-5-5-5-5-5-5-5-5-5-5-5-3-3-3-3-|
A-3-3-3-3-3-3-3-3-3-3-3-3-5-5-5-5-3-3-3-3-3-3-3-3-5-5-5-5-3-3-3-3-|
E-----------------1-1-1-1-3-3-3-3-----------------3-3-3-3-1-1-1-1-|X2

PRE-CHORUS: PART 1   PART 2
(...through thick and thin she ...)
e-----------------|------------------------
B-----------------|------------------------
G-----------------|5-5-5-5-5-5-5-----------
D-3-------5-------|5-5-5-5-5-5-5-3-3-3-3-5~
A-3-(X10)-5-(X10)-|3-3-3-3-3-3-3-3-3-3-3-5~
E-1-------3-------|--------------1-1-1-1-3~

VERSE 2:
PLAM MUTED
e-----------------------------------------------------------------|
B-----------------------------------------------------------------|
G-5-5-5-5-5-5-5-5-----------------5-5-5-5-5-5-5-5-----------------|
D-5-5-5-5-5-5-5-5-3-3-3-3-5-5-5-5-5-5-5-5-5-5-5-5-5-5-5-5-3-3-3-3-|
A-3-3-3-3-3-3-3-3-3-3-3-3-5-5-5-5-3-3-3-3-3-3-3-3-5-5-5-5-3-3-3-3-|
E-----------------1-1-1-1-3-3-3-3-----------------3-3-3-3-1-1-1-1-|
--*-*-*-*-*-*-*-*-*-*-*-*-*-*-*-*-*-*-*-*-*-*-*-*-*-*-*-*-*-*-*-*-|X2

e-----------------------------------------------------------------|
B-----------------------------------------------------------------|
G-5-5-5-5-5-5-5-5-----------------5-5-5-5-5-5-5-5-----------------|
D-5-5-5-5-5-5-5-5-3-3-3-3-5-5-5-5-5-5-5-5-5-5-5-5-5-5-5-5-3-3-3-3-|
A-3-3-3-3-3-3-3-3-3-3-3-3-5-5-5-5-3-3-3-3-3-3-3-3-5-5-5-5-3-3-3-3-|
E-----------------1-1-1-1-3-3-3-3-----------------3-3-3-3-1-1-1-1-|

PRE-CHORUS:

VERSE 3 VARIATION:
e-----------------------|--------------------|---------|
B-----------------------|--------------------|---------|
G-5-5-5-5-5-5-5---------|10-5---5-10-5---5---|-------5-|
D-5-5-5-5-5-5-5-3-3-3-5~|10-5-3-5-10-5-5-5---|---3-5-5-|
A-3-3-3-3-3-3-3-3-3-3-5~|-8-3-3-3—-8-3-5-3---|---3-5-3-|
E---------------1-1-1-3~|-----1--------3-----|X2-1-3---|

INTERLUDE:

C   F   G   C   G   F   (X4)

PICK SCRAPE

CHORUS:

e---------------------------------------------------------------|
B---------------------------------------------------------------|
G-5-5-5-5-5-5-5-----------------5-5-5-5-5-5-5-5-----------------|
D-5-5-5-5-5-5-5-3-3-3-3-5-5-5-5-5-5-5-5-5-5-5-5-5-5-5-5-3-3-3-3-|
A-3-3-3-3-3-3-3-3-3-3-3-5-5-5-5-3-3-3-3-3-3-3-3-5-5-5-5-3-3-3-3-|
E---------------1-1-1-1-3-3-3-3-----------------3-3-3-3-1-1-1-1-|X2

PRE-CHORUS:

PART 1 (X1)
PART 2 (X3)

OUTRO:

e----------------------------------
B----------------------------------
G-5-5-5-5-5-5-5-----------------5~~
D-5-5-5-5-5-5-5-3-3-3-3-5-5-5-5-5~~
A-3-3-3-3-3-3-3-3-3-3-3-5-5-5-5-3~~
E---------------1-1-1-1-3-3-3-3----



Important: The song above is NOT stored on the Chordie server. The original song is hosted at www.xguitar.com. Chordie works as a search engine and provides on-the-fly formatting. Chordie does not index songs against artists'/composers' will. To remove this song please click here.

This song is displayed as text-only. Transposing and tuning is only available for chordpro-songs.

Login - add to songbook

Rating click stars to rate

Layout
Accuracy

SHARE PAGE  




You need to log in to post comments