Guitar Tabs, Chords and Lyrics


Caps and Bottles    Dropkick Murphys



-------------------------------------------------------

          CAPS AND BOTTLES - DROPKICK MURPHY'S

-------------------------------------------------------



Transcribed by Andy Weber

BarroomHero@hotmail.com

                             Enjoy!



Intro: twangy guitar on intro



   When I was 13 I bought a scally cap (play)

   Looked up to the older guys who drank at the rat (play)

E-------------------------------------------------

B-------------------------------------------------

G---5s7s5s3---------------------------------------

D-------------------------------------------------

A-------------------------------------------------

E-------------------------------------------------



Verse: Play 6X

                   I recall when I was small......

E-------------------------------------------------

B-------------------------------------------------

G-----------7--7--7--5--5--5--7-6-4---------------

D--7--7--7--7--7--7--5--5--5--7-6-4---------------

A--7--7--7--5--5--5--7--7--7--5-4-2---------------

E--5--5--5----------------------------------------



Chorus: Play 4X

                            It's killing me.......

E-------------------------------------------------

B-------------------------------------------------

G-----7--7--9--9----------------------------------

D--7--7--7--9--9----------------------------------

A--7--5--5--7--7----------------------------------

E--5----------------------------------------------



Verse: I'd fight them all, big or small........



Chorus: It's killing me........................



Verse: Only play it 2X



Chorus: It's killing me.....................

        (NO GUITAR)



Verse: Barracuda-Scally Caps................

=======================================================

     There ya go!  Great song (nice ring) - Enjoy!



                       Andy Weber



Important: The song above is NOT stored on the Chordie server. The original song is hosted at www.xguitar.com. Chordie works as a search engine and provides on-the-fly formatting. Chordie does not index songs against artists'/composers' will. To remove this song please click here.

This song is displayed as text-only. Transposing and tuning is only available for chordpro-songs.

Login - add to songbook

Rating click stars to rate

Layout
Accuracy

SHARE PAGE  




You need to log in to post comments