Guitar Tabs, Chords and Lyrics


For Boston    Dropkick Murphys



Dropkick Murphys
For Boston
Sing Loud Sing Proud

Ahhh I love this song, first thing you hear at a Dropkick concert is, LETS GO BOSTON, then they play this and it’s the best thing ever.

Here’s most of it, it’s real sloppy, but work around that, if you get the feel you can play it right.  I was too lazy to tab out the rest.

|---------------------------------------------------------------------------------|
|---------------------------------------------------------------------------------|
|---------------------------------------------------------------------------------|
|-----8--------12--10-----8--10--8--7--8----8--10-10--12--10-10-8--10-8--8-----8--|
|--8--6--8--8--10--8---8--6--8---6--5--6----6--8---8--10--8--8--6--8--6--6--8--6--|
|--6-----6--6----------6----------------------------------------------------6-----|

|--------------------------------|
|--------------------------------|
|--------------------------------|
|-8-10-10-10-10-10--8-8----------|    X 2
|-6-8--8--8--8--8---6-6----------|


Important: The song above is NOT stored on the Chordie server. The original song is hosted at www.xguitar.com. Chordie works as a search engine and provides on-the-fly formatting. Chordie does not index songs against artists'/composers' will. To remove this song please click here.

This song is displayed as text-only. Transposing and tuning is only available for chordpro-songs.

Login - add to songbook

Rating click stars to rate

Layout
Accuracy

SHARE PAGE  




You need to log in to post comments