Guitar Tabs, Chords and Lyrics


Good Rats    Dropkick Murphys



Band: Dropkick Murphys
Song: Good Rats
Tabbed By: Lanex13

CHORDS USED:
    D  F  C  G
e|--2--1--1--3-------------------------------------------------------|
B|--3--2-------------------------------------------------------------|
G|--2--3--2----------------------------------------------------------|
D|--------3----------------------------------------------------------|
A|-----------2-------------------------------------------------------|
E|-----------3-------------------------------------------------------|

Riff 1: F,C,G,C

Riff 2:
e|-------------------------------------------------------------------|
B|--1-1-1-1-------1-1------------------------------------------------|
G|-2-2-2-2---1-1-2-2-------------------------------------------------|
D|----------2-2------------------------------------------------------|
A|-------------------------------------------------------------------|
E|-------------------------------------------------------------------|

Riff 3:
e|-------------------------------------------------------------------|
B|-------------------------------------------------------------------|
G|-----------------5-5-5-5-5-5-5-5-----------------------------------|
D|-3-3-3-3-5-5-5-5-5-5-5-5-5-5-5-5-----------------------------------|
A|-3-3-3-3-5-5-5-5-3-3-3-3-3-3-3-3-----------------------------------|
E|-1-1-1-1-3-3-3-3---------------------------------------------------|

ORDER:
Dx6
Riff 1x4
Riff 2x4
Dx6
Riff 2x4
Dx6
Riff 3x4
Dx6
Riff 2x4
Dx6
Riff 3x4
Dx6
Riff 1x4
Dx6
Bass Solo
Dx6


Important: The song above is NOT stored on the Chordie server. The original song is hosted at www.xguitar.com. Chordie works as a search engine and provides on-the-fly formatting. Chordie does not index songs against artists'/composers' will. To remove this song please click here.

This song is displayed as text-only. Transposing and tuning is only available for chordpro-songs.

Login - add to songbook

Rating click stars to rate

Layout
Accuracy

SHARE PAGE  




You need to log in to post comments