Guitar Tabs, Chords and Lyrics


The New American Way    Dropkick Murphys



-THE NEW AMERICAN WAY-

PART 1
e|----------------------|
B|----------------------|
G|-------------66-------|
D|-99999999999966774----|
A|-99999999999944774----|
E|-777777777777—-552----|

PART 2
e|----------------------------------|
B|----------------------------------|
G|-------------66-------------------| x2
D|-99999999999966774444444444444444-|
A|-99999999999944774444444444444444-|
E|-777777777777—-552222222222222222-|

PART 3
e|--------------------|
B|--------------------|
G|-------------66-----|
D|-99999999999966774--|
A|-99999999999944774--|
E|-777777777777—-552--|

PART 4
e|------------------------------------|
B|------------------------------------|
G|------------------------------------|
D|-7------6-4-------------------------|
A|--7---------7-4-----5-5-5-7-7-7-420-|
E|------------------------------------|

PART 5
e|-----------------------------------------------------|
B|-----------------------------------------------------|
G|-----------------------------7777-6666---------------| x2
D|-777777-777777---------------7777-6666-777777-777777-|
A|-777777-777777-888888-888888-5555-4444-777777-777777-|
E|-555555-555555-999999-999999-----------555555-555555-|

DO PART 2 3x
THEN DO:
PART 6
e|----------------------------------------|
B|----------------------------------------|
G|-11-11-11-11-11-11-999999---------------| x4
D|-11-11-11-11-11-11-999999-777777-777777-|
A|--9—-9--9--9--9--9—777777-777777-777777-|
E|--------------------------555555-555555-|

DO PART 5 2x
THEN DO PART 2 3x		e|----------|
THEN DO PART 6 4x		B|----------|
THEN DO PART 2 3x		G|-----7----|
THEN DO PART 6 8x		D|-7---7-7--|
			A|-7---5-7--|


Important: The song above is NOT stored on the Chordie server. The original song is hosted at www.xguitar.com. Chordie works as a search engine and provides on-the-fly formatting. Chordie does not index songs against artists'/composers' will. To remove this song please click here.

This song is displayed as text-only. Transposing and tuning is only available for chordpro-songs.

Login - add to songbook

Rating click stars to rate

Layout
Accuracy

SHARE PAGE  




You need to log in to post comments