Guitar Tabs, Chords and Lyrics


The Rocky Road to Dublin    Dropkick Murphys



By: CelticFool(NOFXJunkie)

Intro:
e--------------------------------- ---
b--------------------------------- ---
g-9-9-9-9-9-9-9-9-7-7-7-7--------- -9-
d-9-9-9-9-9-9-9-9-7-7-7-7-9-9-7-7- -9-
a-7-7-7-7-7-7-7-7-5-5-5-5-9-9-7-7- -7-
E-------------------------7-7-5-5- x2 --- x16

Verse:
e---------------------------------------------------
b---------------------------------------------------
g-9-9-9-9-9-9-9-9-9-9-9-9-9-9-9-9-9-9-7-7-7-7-7-7-9-
d-9-9-9-9-9-9-9-9-9-9-9-9-9-9-9-9-9-9-7-7-7-7-7-7-9-
a-7-7-7-7-7-7-7-7-7-7-7-7-7-7-7-7-7-7-5-5-5-5-5-5-7-
E--------------------------------------------------- (x4)

Modified Verse I:
e-O-O-O-O-O-O-O-O-O-O-O-O-O-O-O-O-O-O-2-2-2-2-2-2-0-
b-O-O-O-O-O-O-O-O-O-O-O-O-O-O-O-O-O-O-3-3-3-3-3-3-0-
g-1-1-1-1-1-1-1-1-1-1-1-1-1-1-1-1-1-1-2-2-2-2-2-2-1-
d-2-2-2-2-2-2-2-2-2-2-2-2-2-2-2-2-2-2-O-O-O-O-O-O-2-
a-2-2-2-2-2-2-2-2-2-2-2-2-2-2-2-2-2-2-------------2-
E--------------------------------------------------- x4

Chorus:
e--------------------------------- ---
b--------------------------------- ---
g-9-9-9-9-9-9-9-9-7-7-7-7--------- -9-
d-9-9-9-9-9-9-9-9-7-7-7-7-9-9-7-7- -9-
a-7-7-7-7-7-7-7-7-5-5-5-5-9-9-7-7- -7-
E-------------------------7-7-5-5- x1 --- x16

Verse (x2)

Modified Verse II :
e---------------------------------
b---------------------------------
g-9--9--9--7-7-7-9--9--9--7-7-7-9-
d-9--9--9--7-7-7-9--9--9--7-7-7-9-
a-7--7--7--5-5-5-7--7--7--5-5-5-7-
E--------------------------------- x1

Chorus

Modified Verse I

Chorus

Verse

Modified Verse II



Important: The song above is NOT stored on the Chordie server. The original song is hosted at www.xguitar.com. Chordie works as a search engine and provides on-the-fly formatting. Chordie does not index songs against artists'/composers' will. To remove this song please click here.

This song is displayed as text-only. Transposing and tuning is only available for chordpro-songs.

Login - add to songbook

Rating click stars to rate

Layout
Accuracy

SHARE PAGE  




You need to log in to post comments