Guitar Tabs, Chords and Lyrics


The Spicy McHaggis Jig    Dropkick Murphys



DROPKICK MURPHYS
SPICY MCHAGGIS JIG
standard tuning


(played during drums-at start of singing)
e-----------------------------
b-----------------------------
g-----------------------------
d---------------8-6------------
a---------------6-4-8----------
e-5~6--(repeat)-----6----------

verse
e--------------------------------------------------------------------------
b--------------------------------------------------------------------------
g--------------------------------------------------------------------------
d----------------8888-----------86------------------8888-----------8888-6666
a-8888-6666-8888-6666-8888-6666-648--8888-6666-8888-6666-8888-6666-6666-4444
e-6666-4444-6666------6666-4444---6--6666-4444-6666------6666-4444----------

chorus
e-----------------------------------------------------
b-----------------------------------------------------
g-----------------------------------------------------
d------8888-------------------------------------------
a-8888-6666-8888-6666---------------------------------
e-6666------6666-4444---------------------------------



Important: The song above is NOT stored on the Chordie server. The original song is hosted at www.xguitar.com. Chordie works as a search engine and provides on-the-fly formatting. Chordie does not index songs against artists'/composers' will. To remove this song please click here.

This song is displayed as text-only. Transposing and tuning is only available for chordpro-songs.

Login - add to songbook

Rating click stars to rate

Layout
Accuracy

SHARE PAGE  




You need to log in to post comments