Guitar Tabs, Chords and Lyrics


Mob Mentality    Dropkick Murphys



Title: Mob Mentality
Band: Dropkick Murphys

e--------------------------------------------------------------------
b--------------------------------------------------------------------
g--------------------------------------------------------------------
d--------------------------------------------------------------------
a-----5-5-5-5-5-5-----------5-5-5-5-5-5------------------------------
E--7-7-----------7-7-7-7-7-7-----------7-7-7-7-7-7-0-0-0-0-0-0-0-0-2~


Opening chords   B Bb G# F#  x3      then E  to    F#
e-----------------------------------------------------------
b-----------------------------------------------------------
g--44-33--------44-33--------44-33--------------------------
d--44-33-66-44--44-33-66-44--44-33-66-44--22222222-44444444-
a--22-11-66-44--22-11-66-44--22-11-66-44--22222222-44444444-
E--------44-22--------44-22--------44-22--00000000-22222222-

verse
e----------------------------
b-------4444-5555-7777-------
g--4444-3333-4444-6666-------
d--4444-1111-2222-4444-------
a--2222----------------------
E----------------------------
   B    D#   E    F#

Between the verse and the chourus You play A to F#

Chourus
e-------------                        e-------------------
b-------------                        b-------------------
g--44-33------             x3         g-------------------
d--44-33-66-44                        d--22222222-44444444
a--22-11-66-44                        a--22222222-44444444


Important: The song above is NOT stored on the Chordie server. The original song is hosted at www.xguitar.com. Chordie works as a search engine and provides on-the-fly formatting. Chordie does not index songs against artists'/composers' will. To remove this song please click here.

This song is displayed as text-only. Transposing and tuning is only available for chordpro-songs.

Login - add to songbook

Rating click stars to rate

Layout
Accuracy

SHARE PAGE  




You need to log in to post comments