Guitar Tabs, Chords and Lyrics


Bodies    Drowning Pool






Author/Artist: Drowning Pool
Title: Bodies
Album: Sinner
Transcribed by: J. Keller
Email: x_hellfire_x@hotmail.com

Tune down to C
use wah
x = muted note
\ = slide down

------------------------------------------------------------------------------
------------------------------------------------------------------------------
-7-7-7------------------------------------------------------------------------
-7-7-7-6--6-6-6-0-0-0--6-6-3-1------------------------------------------------
-5-5-5-6--6-6-6-0-0-0--6-6-3-1------------------------------------------------
-------6--6-6-6-0-0-0--6-6-3-1------------------------------------------------
        play verse 2x

-------10-10-10-10-10-10-10-10---------15-15-15-15-15-15-15-15----------------
-------10-10-10-10-10-10-10-10---------15-15-15-15-15-15-15-15----------------
---------------------------------------15-15-15-15-15-15-15-15----------------
------------------------------------------------------------------------------
------------------------------------------------------------------------------
------------------------------------------------------------------------------
        play verse 4x

------------------------|-----------------------------------------------------
------------------------|-----------------------------------------------------
------------------------|-----------------------------------------------------
------------------------|-0x--0-3-3-5-5-7-7-----------------------------------
-0x--0x-1x-0x--0x-1x-3x-|-0x--0-3-3-5-5-7-7-----------------------------------
-0x--0x-1x-0x--0x-1x-3x-|-0x--0-3-3-5-5-7-7-----------------------------------
   play verse 7x

-----------10-10-10------------15-15-15-|----------10-10-10--------15-15-15---
-----------10-10-10------------15-15-15-|----------10-10-10--------15-15-15---
-------------------------------15-15-15-|-------------------------------------
-0x-0x-0x------------0x-0x-0x-----------|-0x-0x-0x-----------0-0-0------------
-0x-0x-0x------------0x-0x-0x-----------|-0x-0x-0x-----------0-0-0------------
-0x-0x-0x------------0x-0x-0x-----------|-0x-0x-0x-----------0-0-0------------
       play verse 3x

------------------------------------------------------------------------------
------------------------------------------------------------------------------
-7-7-7------------------------------------------------------------------------
-7-7-7-6--6-6-6-0-0-0-6--6-3-1------------------------------------------------
-5-5-5-6--6-6-6-0-0-0-6--6-3-1------------------------------------------------
-------6--6-6-6-0-0-0-6--6-3-1------------------------------------------------
         play verse 4x

-------10-10-10-10-10-10-10-10-----15-15-15-15-15-15-15-15--------------------
-------10-10-10-10-10-10-10-10-----15-15-15-15-15-15-15-15--------------------
-----------------------------------15-15-15-15-15-15-15-15--------------------
------------------------------------------------------------------------------
------------------------------------------------------------------------------
------------------------------------------------------------------------------
            play verse 2x

------------------------|-----------------------------------------------------
------------------------|-----------------------------------------------------
------------------------|-----------------------------------------------------
------------------------|-0x-0-3-3-5-5-7-7------------------------------------
-0x--0x-1x-0x--0x-1x-3x-|-0x-0-3-3-5-5-7-7------------------------------------
-0x--0x-1x-0x--0x-1x-3x-|-0x-0-3-3-5-5-7-7------------------------------------
     play verse 7x

----------10-10-10-----------15-15-15-|---------------------------------------
----------10-10-10-----------15-15-15-|---------------------------------------
-----------------------------15-15-15-|---------------------------------------
-0x-0x-0x-----------0x-0x-0x----------|-0-0-0-0-6-6-6-6-----------------------
-0x-0x-0x-----------0x-0x-0x----------|-0-0-0-0-6-6-6-6-----------------------
-0x-0x-0x-----------0x-0x-0x----------|-0-0-0-0-6-6-6-6-----------------------
       play verse 3x

------------------------------------------------------------------------------
------------------------------------------------------------------------------
-7-7-7------------------------------------------------------------------------
-7-7-7-6--6-6-6-0-0-0-6--6-3-1------------------------------------------------
-5-5-5-6--6-6-6-0-0-0-6--6-3-1------------------------------------------------
-------6--6-6-6-0-0-0-6--6-3-1------------------------------------------------
       play verse 4x

------------------------------------------------------------------------------
------------------------------------------------------------------------------
------------------------------------------------------------------------------
-0-5-6-5-6-0-0-0x-0x0x0x0x0x0x0x0x0x-0x-5-6-5-0-3-3-3x-3x-3x-3x-1x-1x-1x-1x---
-0-5-6-5-6-0-0-0x-0x0x0x0x0x0x0x0x0x-0x-5-6-5-0-3-3-3x-3x-3x-3x-1x-1x-1x-1x---
-0-5-6-5-6-0-0-0x-0x0x0x0x0x0x0x0x0x-0x-5-6-5-0-3-3-3x-3x-3x-3x-1x-1x-1x-1x---


------------------------------------------------------------------------------
------------------------------------------------------------------------------
------------------------------------------------------------------------------
-0-5-6-5-6-0-0-0x-0x0x0x0x0x0x0x0x0x-0x-5-6-5-0-3-3--3-3-1-1-1-1-1------------
-0-5-6-5-6-0-0-0x-0x0x0x0x0x0x0x0x0x-0x-5-6-5-0-3-3--3-3-1-1-1-1-1------------
-0-5-6-5-6-0-0-0x-0x0x0x0x0x0x0x0x0x-0x-5-6-5-0-3-3--3-3-1-1-1-1-1------------


-------10-10-10-10-10-10-10-10-----15-15-15-15-15-15-15-15-15-----------------
-------10-10-10-10-10-10-10-10-----15-15-15-15-15-15-15-15-15-----------------
-----------------------------------15-15-15-15-15-15-15-15-15-----------------
------------------------------------------------------------------------------
------------------------------------------------------------------------------
------------------------------------------------------------------------------
           play verse 6x

------------------------------------------------------------------------------
------------------------------------------------------------------------------
------------------------------------------------------------------------------
------------------------------------------------------------------------------
-0x-0x-0x---0x-0x-0x---0x-0x-0x---0x-0x-0x------------------------------------
-0x-0x-0x---0x-0x-0x---0x-0x-0x---0x-0x-0x------------------------------------


-----------------------------------------------------|------------------------
-----------------------------------------------------|------------------------
-----------------------------------------------------|------------------------
-----------------------------------------------------|0x-0x0x0x-0x0x-3-3-5-5--
-0x-0x-0x--xxxxx--0x-0x-0x---xxxxx--0x-0x-0x---xxxxx-|0x-0x0x0x-0x0x-3-3-5-5--
-0x-0x-0x--xxxxx--0x-0x-0x---xxxxx--0x-0x-0x---xxxxx-|0x-0x0x0x-0x0x-3-3-5-5--


-------------------------------|----------------------------------------------
-------------------------------|----------------------------------------------
-7-7-7-------------------------|-7-7-7----------------------------------------
-7-7-7-6--6-6-6-0-0-0-6--6-3-1-|-7-7-7-6--6-6-6-0-0-0-6--6-3------------------
-5-5-5-6--6-6-6-0-0-0-6--6-3-1-|-5-5-5-6--6-6-6-0-0-0-6--6-3------------------
-------6--6-6-6-0-0-0-6--6-3-1-|-------6--6-6-6-0-0-0-6--6-3------------------


Important: The song above is NOT stored on the Chordie server. The original song is hosted at www.xguitar.com. Chordie works as a search engine and provides on-the-fly formatting. Chordie does not index songs against artists/composers will. To remove this song please click here.

This song is displayed as text-only. Transposing and tuning is only available for chordpro-songs.

Login - add to songbook

Rating click stars to rate

Layout
Accuracy

SHARE PAGE  




You need to log in to post comments