Life In The Fast Lane

Eagles

Here is what I think the intro to Life in the Fast Lane (by the
Eagles) is:
E---------------------------------------------
B---------------------------------------------
G-----2---0--------------------2---0----------
D-0^2---2---2p0------------0^2---2---2p0------
A---------------0------------------------0----
E-----------------3-0----------------------3--

E---------------------------------------- B---------------------------------------- G-----2---0---------------2---0---------- D-0^2---2---2p0-------0^2---2---2p0------ A---------------0-------------------0---- E-----------------3-0-----------------3--
The difference between the two above riffs is that the first has a break in
it (the big space) and the second is continuous.
------------------

To: guitar@nevada.edu

rsn@cory.Berkeley.EDU (Sekhar Narayanaswami) writes:
>Here is what I think the intro to Life in the Fast Lane (by the
>Eagles) is:
E---------------------------------------------
B---------------------------------------------
G-----2---0--------------------2---0----------
D-0^2---2---2p0------------0^2---2---2p0------
A---------------0------------------------0----
E-----------------3-0----------------------3--

and later
Adam Schneider indigo@ucscb.ucsc.edu writes:
>Looks pretty good, but I think the last couple notes are like so:

E---------------------------------------------
B---------------------------------------------
G-----2---0--------------------2---0----------
D-0^2---2---2p0------------0^2---2---2p0------
A---------------3-0----------------------3-0--
E-------------------3-------------------------
                ^^^^^                    ^^^


however,if you want to play the riff with some feeling
and sound..then I suggest neither of the above are right..
This is how I do it..in the key of E! (chords of the song are E/A/B
basically)
 E----------------------------------|---------------------------
 B----------------------------------|---------------------------
 G----------------------------------|---------------------------
 D------7---5~----------------------|------7---5~---------------
 A--5^7---7-----7p5-----------------|--5^7---7----7p5-----------
 E-------------------7--3~--0-------|------------------7--3~.---
                            ^^^


where ~ stands for a microtone bend(1/4)
and . stands for a muted note

Still more corrections..most welcome..(if any)

Urban De Souza
(ujd@ecl.psu.edu)

Alright, I got my tabber working. So here's the first Eagles tab from me.
If anyone wants any more Eagles' songs lemme know and I'll post 'em.
Latr
Dave

Life in the Fast Lane
Eagles
Written by:
Don Henley
Glen Fry annd Joe Walsh

                                                                                
|-----------------------|-----------------------|---------------------------|---
|-----------------------|-----------------------|---------------------------|---
|-----------------------|-----------------------|---------------------------|---
|-----7---5-------------|-----7---5-------------|-----7---5-----------------|---
|-5h7---7---7-5---------|-5h7---7---7-5---------|-5h7---7---7-5---------5-7-|---
|---------------7p5-3-0-|---------------7p5-3/4-|---------------7p5-3-0-----|---
                                                                                
------------------|-----------------------|-----------------------|-------------
------------------|-----------------------|-----------------------|-------------
------------------|-----------------------|-----------------------|-------------
7---5-------------|-----7---5-------------|-----7---5-------------|-------------
--7---7-5---------|-5h7---7---7-5---------|-5h7---7---7-5---------|-------------
-----------75-3b4-|---------------7p5-3-0-|---------------7p5-3b4-|-------------
                                                                                
--------------------------|-----------------------||---------------------|------
--------------------------|-----------------------||---------------------|------
--------------------------|-----------------------||---------------------|------
----7---5-----------------|-7---5-----------------||---5p2-----2---------|------
5h7---7---7-5---------5-7-|---7---7-5-------------||-------(3)---5/7-7-7-|------
---------------7p5-3-0-----|-----------75-3-5-6-7-||-0-------------------|------
                                                                                
----------------------|-----------------------|-------------------||------------
----------------------|-----------------------|-------------------||------------
----------------------|-----------------------|-------------------||------------
--5p2-----2---0-------|-5p2---x-2-------------|---5p2---2-0-------||------------
------x-2-------2-----|-----x-----5/7---7---x-|-x-----x-----2-----||------------
0-----------------3/4-|-------------------0---|---------------3/4-||------------


================================================================================
== TABLATURE EXPLANATION ==
================================================================================

---------- ----------
----5h8--- Hammeron ----(8)--- Ghost Note
---------- ----------
----5p8--- Pulloff ----------

---------- ----------
----5/8--- Slide Up -----x---- Dead Note
---------- ----------
----58--- Slide Down ----------

---------- ||------|| Repeat Start & End
----5~~~-- Vibrato ||*----*||
---------- ||*----*||
---------- ||------||

Rhythm:
w = whole note W = dotted whole
h = half note H = dotted half
q = quarter note Q = dotted quarter
e = eighth note E = dotted eighth
s = sixteenth note S = dotted sixteenth
^ = triplet

================================================================================
== Created with a shareware version of the BUCKET 'O TAB ==
== tablature creation software for Windows ==
== For more information: ==
== email: gse@ocsystems.com ==
== US Mail: The Bucket, 3176-B5 Summit Square Dr., Oakton, VA 22124 ==
================================================================================


Corrected by broo0ose. View original
variations - click chord images
Transpose chords:
Tuning:
Cool service:
View: Size:
A  A  A
Rating:
Layout:
  • Currently 0/5 Stars.
  • 1
  • 2
  • 3
  • 4
  • 5
 
Accuracy:
  • Currently 2.5/5 Stars.
  • 1
  • 2
  • 3
  • 4
  • 5
 
click stars to rate
Chordie recommends:
Learn how to play guitar at JamPlay.com
Songbook:
Login to add this song to your songbook
Support the artist
Preview/buy this song
MSN Music
Why this non-profit ad?

 
login to add comments/video/corrections