Guitar Tabs, Chords and Lyrics


All We Ever Needed    Early November



ALL WE EVER NEEDED
Tabbed  by RYANN

This is my first tab so correct it if you can.  This version is from the acoustic EP for all of this cd.
-half step down
-dropped D

ORDER
Intro- 4x
Verse-1x
Intro- 4x
Verse-2x
Intro-2x

Intro
eb ----------------------------------------------------------------------------
Bb ----------------------------------------------------------------------------
Gb --------9--------------9--------------9------------9------------9------------
db ----9------9-------9------9--------9-----9------9----9-------9----9----------
Ab --7------------7---------------6------------6--------------------------------
Db ---------------------------------------------------------7-------------------

eb-----------------------------------------------------------------    ---
Bb----------------------------------------------------------------     ---
Gb----------9--------------9-----------9--------------------------     -9-end
db------9-------9-------9----9------9-----9---------------------       -9-with
Ab----------------------------------------------------------------     -7-last
Db---7--------------7------------7------------------------------       -7-time
                    								
Verse
eb ----------------------------------------------------------------------------
Bb ----------------------------------------------------------------------------
Gb ---1----4---2--------4---2------------4---2----------4----2-----------------
db ---2----4---2----2---4---2------2-----4---2-----2----4----2-----------------
Ab ---2----2---0----2---2---0------2-----2---0-----2----2----0-----------------
Db -----------------2--------------2---------------2---------------------------


just the basic stuff you need to know. the strumming's easy.


==================================

Opening
e|---------------------------------------------------------------------------|
B|---------------------------------------------------------------------------|
G|-8---10--13-----8---10--13-------------------------------------------------|
D|-8---10--13-----8---10--13-------------------------------------------------|
A|-6---8---11-----6---8---11-------------------------------------------------|
D|---------------------------------------------------------------------------|

Verse
Tonight is.....
repeat until chorus

e|---------------------------------------------------------------------------|
B|---------------------------------------------------------------------------|
G|-----8-------8------8-------8-------8-------8-------8-------8--------------|
D|---8---8---8---8--8---8---8---8---8---8---8---8---8---8---8---8------------|
A|-6-------6-----------------------------------------------------------------|
D|----------------8-------8-------6-------6-------6-------6------------------|


Chrous
All we ever wanted was.....
e|---------------------------------------------------------------------------|
B|---------------------------------------------------------------------------|
G|-8---10--13-----8---10--13-------------------------------------------------|
D|-8---10--13-----8---10--13-------------------------------------------------|
A|-6---8---11-----6---8---11-------------------------------------------------|
D|---------------------------------------------------------------------------|

Just repeat the verse then repeat the chorus twice with a pause between them.

Any corrections or feedback, e-mail me at colinawthnowena@netscape.net


| /  slide up
| \  slide down
| h  hammer-on
| p  pull-off
| ~  vibrato
| +  harmonic
| x  Mute note


Important: The song above is NOT stored on the Chordie server. The original song is hosted at www.xguitar.com. Chordie works as a search engine and provides on-the-fly formatting. Chordie does not index songs against artists'/composers' will. To remove this song please click here.

This song is displayed as text-only. Transposing and tuning is only available for chordpro-songs.

Login - add to songbook

Rating click stars to rate

Layout
Accuracy

SHARE PAGE  




You need to log in to post comments