Guitar Tabs, Chords and Lyrics


Flower  Eels

e--17----17--17---15------17-----15--


b--18----18--18---17------18-----17--


g--17----17--17---17------17-----17--


d------------------------------------


a------------------------------------


e------------------------------------


e--17----17--17---15------13-----12--


b--18----18--18---17------15-----13--


g--17----17--17---17------15-----12--


d------------------------------------


a------------------------------------


e------------------------------------


e--13----13--13----15------15-----19-------17-----13-----18---15----17--


b--15----15--15----16------16-----20-------18-----15-----20---16----18--


g--14----14--14----15------15-----19-------17-----14-----20---15----17--


d-----------------------------------------------------------------------


a-----------------------------------------------------------------------


e-----------------------------------------------------------------------


e--17--------15--------17--------15--------15------17------16------16---16--


b--18--------15--------18--------15--------15------18------18------18---18--


g--17--------15--------17----=---15--------15------17------18------18---18--


d---------------------------------------------------------------------------


a---------------------------------------------------------------------------


e---------------------------------------------------------------------------


e--16------16------16----16---16--16------16--


b--17------16------18----18---18--18------18--


g--17------17------17----17---17--17------17--


d---------------------------------------------


a---------------------------------------------


e---------------------------------------------


e--17-------13----13--14--18----15----17----17--17------13---13--13---18----18---17-------17---13---13--13--18---15--


b--18-------15----15--15--18----15----18----18--18------15---15--15---18----19---18-------18---15---15--15--18---15--


g--17-------14----14--14--19----15----17----17--17------14---14--14---19----19---17-------17---14---13--13--19---15--


d--------------------------------------------------------------------------------------------------------------------


a--------------------------------------------------------------------------------------------------------------------


e--------------------------------------------------------------------------------------------------------------------

[G]turn the ugly [D]light off god
[G]wanna feel the [D]night
[G]everyday it [D]shines down on me
[C]don't you think that [D]i see
[G]don't you think that [D]i see
[C]what it's all a[D]bout
[C]hard to look the [F]other way
while the [C]world passes me [G]by
and [G]every[C]one is [Am]trying to [D]bum me [G]out
it's a pretty big world god
and i am awful small
everyday they rain down on me
flower in a hailstorm
flower in a hailstorm
i'm living for the drought
i could throw it back at them
but then i play their game
everyone is trying to bum me out
[Am]when i came into this world they [Em]slapped me
[Am]and everyday since then i'm [Em]slapped again
[D#]tomorrow's king: an unsightly [A#]coward
you see, I know i'm gonna [G]win[D] [C] [D]
[G]   [D]   [C]   [D]  turn the ugly light off god
don't wanna see my face
everyday it will betray me
don't you think that i know
don't you think that i know
what they're talking about
if they step on me tonight
they're gonna pay someday
everyone is trying to bum me out

Important: The song above is NOT stored on the Chordie server. The original song is hosted at www.xguitar.com. Chordie works as a search engine and provides on-the-fly formatting. Chordie does not index songs against artists'/composers' will. To remove this song please click here.

Text color:
Chord color:
Chord grids: 
Font size:    
Page size: 

A# Am C D D# Em F G
variations - click chord images

Login - add to songbook

Transpose chords

Tuning

Rating click stars to rate

Layout
Accuracy

Jango Player

SHARE PAGE  




You need to log in to post comments