Guitar Tabs, Chords and Lyrics


All in a Day's Work   Eels



Intro
e/----------------------------------------------------------------------------
B/----------------------------------------------------------------------------
G/-----------------------------------------5-5-5------------------------------
D/---7b(8)----(8)bd7-5---2-2-2-------------5-5-5------------------------------
A/-----------------------2-2-2----5/7-5-4--3-3-3--3--2------------------------
E/-----------------------0-0-0------------------------------------------------


 Verse
e/----------------------------------------------------------------------------
B/----------------------------------------------------------------------------
G/------------------------5----5----5-----------------------------------------
D/--2----2----2-----------5----5----5-----------------------------------------
A/--2----2----2--5/7-5-4--3----3----3--3--2-----------------------------------
E/--0----0----0---------------------------------------------------------------



e/----------------------------------------------------------------------------
B/----------------------------------------------------------------------------
G/----------------------------------------------------------------------------
D/----------------------------------------------------------------------------
A/-5-5-5-5-5-5--10101010101010-7-7-7-7-7-7-7-10101010101010101010-------------


Important: The song above is NOT stored on the Chordie server. The original song is hosted at www.xguitar.com. Chordie works as a search engine and provides on-the-fly formatting. Chordie does not index songs against artists'/composers' will. To remove this song please click here.

This song is displayed as text-only. Transposing and tuning is only available for chordpro-songs.

Login - add to songbook

Rating click stars to rate

Layout
Accuracy

SHARE PAGE  




You need to log in to post comments