Guitar Tabs, Chords and Lyrics


Lone Wolf   Eels



e/----------------------------------------------------------------------------
B/----------------------------------------------------------------------------
G/---7-7--10-10--3-3--5-5-----------------------------------------------------
D/---9-9--12-12--5-5--7-7-----------------------------------------------------
A/---9-9--12-12--5-5--7-7-----------------------------------------------------
E/---7-7--10-10--3-3--5-5-----------------------------------------------------


 2nd guitar
e/----------------------------------------------------------------------------
B/-------7-------------------7------------------------------------------------
G/-----7-------------------7--------------------------------------------------
D/---9-------------------9----------------------------------------------------
A/----------------------------------------------------------------------------
E/----------------------------------------------------------------------------



 2nd guitar (not compolsury)
e/-----------7------------------10-----7--------------------------------------
B/------7-----10--8-7--------------8-----10--8-7------------------------------
G/----7---------------9------7-------------------9----------------------------
D/--9----------------------9--------------------------------------------------
A/----------------------------------------------------------------------------
E/----------------------------------------------------------------------------




e/----------------------------------------------------------------------------
B/----------------------------------------------------------------------------
G/--7-7--10-10--3-3-3-3---5-5-5-5---------------------------------------------
D/--9-9--12-12--5-5-5-5---7-7-7-7---------------------------------------------
A/--9-9--12-12--5-5-5-5---7-7-7-7---------------------------------------------
E/--7-7--10-10--3-3-3-3---5-5-5-5---------------------------------------------



e/----------------------------------------------------------------------------
B/----------------------------------------------------------------------------
G/--7-7--5-5--3-3-2-2--0--0-0-0----2--2--2--2---------------------------------
D/--9-9--7-7--5-5-4-4--2--2-2-2----4--4--4--4---------------------------------
A/--9-9--7-7--5-5-4-4--2--2-2-2----4--4--4--4---------------------------------


Important: The song above is NOT stored on the Chordie server. The original song is hosted at www.xguitar.com. Chordie works as a search engine and provides on-the-fly formatting. Chordie does not index songs against artists'/composers' will. To remove this song please click here.

This song is displayed as text-only. Transposing and tuning is only available for chordpro-songs.

Login - add to songbook

Rating click stars to rate

Layout
Accuracy

SHARE PAGE  




You need to log in to post comments