Guitar Tabs, Chords and Lyrics


The Good Old Days   Eels



guitar 1
e/-----3---0---3--------3---7--3------3---0--3-----3---7---3-------------------------------
B/---0---0---0---0----0---0---0-----3---3--------0---0---0-------------------------------
G/----------------------------------------------------------------------------
D/----------------------------------------------------------------------------
A/----------------------------------------------------------------------------
E/----------------------------------------------------------------------------


 guitar 2
e/--------------------------3-------3----------------------------------------------
B/-------0---------0----------0---------------------------------------------------
G/----0-----0--0-0---0---0-------0-----0------------------------------------------------
D/----------------------------------------------------------------------------
A/--2---2-2---2-3-3-3-3-2--2-2--3--3-3---3---------------------------------------------------
E/----------------------------------------------------------------------------

 Then guitar 2 keeps playing


Important: The song above is NOT stored on the Chordie server. The original song is hosted at www.xguitar.com. Chordie works as a search engine and provides on-the-fly formatting. Chordie does not index songs against artists'/composers' will. To remove this song please click here.

This song is displayed as text-only. Transposing and tuning is only available for chordpro-songs.

Login - add to songbook

Rating click stars to rate

Layout
Accuracy

SHARE PAGE  




You need to log in to post comments