Guitar Tabs, Chords and Lyrics


Dog Faced Boy   Eels



Eels - Dog Faced Boy

the other tab was incorrect, and this is pretty much 99% right

the \\/ and /\\ are bends

and problems with this tab e-mail me at titchard@hotmail.com

thanks!

titchard


intro (repeated multiple times)

       /\\
-0-2-5-5--5-0-3-3-0------------------------------
-2-4-7-7--7-0-5-5-2------------------------------
-0-4-7-7--7-0-5-5-0------------------------------
-------------------------------------------------
-------------------------------------------------
-------------------------------------------------

chorus

-7-7-7-7--5-5-5-5-0-2-3-2-5----------------------
-9-9-9-9--7-7-7-7-2-4-5-4-7----------------------
-9-9-9-9--7-7-7-7-0-4-5-4-7----------------------
-------------------------------------------------
-------------------------------------------------
-------------------------------------------------

small fill in

-------------------------------------------------
-------------------------------------------------
-2-------2-------2-------------------------------
---0-2-2---0--0----------------------------------
-------------------------------------------------
-------------------------------------------------


Important: The song above is NOT stored on the Chordie server. The original song is hosted at www.xguitar.com. Chordie works as a search engine and provides on-the-fly formatting. Chordie does not index songs against artists'/composers' will. To remove this song please click here.

This song is displayed as text-only. Transposing and tuning is only available for chordpro-songs.

Login - add to songbook

Rating click stars to rate

Layout
Accuracy

SHARE PAGE  




You need to log in to post comments