Guitar Tabs, Chords and Lyrics


Radio Ga Ga    Electric Six



Artist - Electric six

     Song   - Radio Ga Ga

     Tuning - Standard  E A D G B E

     Tabbed BillWillKill          disturbed_guitarist@hotmail.com

     KEY:
     - NOTHING
     ~ LET RING
     / SLIDE



     Intro


 E|-------------------------------|
 B|-------------------------------|
 G|-------------------------------|
 D|-3~----5~----8~----5~----8-3-3-|
 A|-3~----5~----8~----5~----8-3-3-|
 E|-1~----3~----6~----3~----6-1-1-|


     Verse


 E|-------------------------------|
 B|-------------------------------|
 G|-------------------------------|  x2
 D|-3~----5~----8~----5~----8-3-3-|
 A|-3~----5~----8~----5~----8-3-3-|
 E|-1~----3~----6~----3~----6-1-1-|



     Pre Chorus


 E|----------------------------------------------------------------------------------------------------------------------|
 B|----------------------------------------------------------------------------------------------------------------------|
 G|----------------------------------------------------------------------------------------------------------------------|   x2
 D|-3-3-3-3-3-3-3-3-3-3-3-3-3-3-3/6-6-6-6-6-6-6-6-6-6-6-6-6-6-6/8-8-8-8-8-8-8-8-8-8-8-8-8-8-8-5-5-5-5-5-5-5-5-5-5-5-5-5-5|
 A|-3-3-3-3-3-3-3-3-3-3-3-3-3-3-3/6-6-6-6-6-6-6-6-6-6-6-6-6-6-6/8-8-8-8-8-8-8-8-8-8-8-8-8-8-8-5-5-5-5-5-5-5-5-5-5-5-5-5-5|
 E|-1-1-1-1-1-1-1-1-1-1-1-1-1-1-1/4-4-4-4-4-4-4-4-4-4-4-4-4-4-4/6-6-6-6-6-6-6-6-6-6-6-6-6-6-6-3-3-3-3-3-3-3-3-3-3-3-3-3-3|


      Chorus


 E|-------------------------------------------------------------------|
 B|-------------------------------------------------------------------|
 G|-3--3-----------3-3-3-----3-3-3--------------------3-3--5-5-5-5----|
 D|-3--3-3--3-3-3--3-3-3-3-3-3-3-3-3-3---5--5-5-5-5-5-3-3--5-5-5-5--3-|
 A|-1--1-3--3-3-3--1-1-1-3-3-1-1-1-3-3---5--5-5-5-5-5-1-1--3-3-3-3--3-|
 E|------1--1-1-1--------1-1-------1-1---3--3-3-3-3-3---------------1-|







Important: The song above is NOT stored on the Chordie server. The original song is hosted at www.xguitar.com. Chordie works as a search engine and provides on-the-fly formatting. Chordie does not index songs against artists'/composers' will. To remove this song please click here.

This song is displayed as text-only. Transposing and tuning is only available for chordpro-songs.

Login - add to songbook

Rating click stars to rate

Layout
Accuracy

SHARE PAGE  




You need to log in to post comments