BbCBbC
 Love on my mind, I used to be
 BbCBbC
 Living it up, fancy free,
 BbCBbC
 Then one nighit came to an end;
 BbCBbC
 I met that girl and the trouble began.

 GG#BbCGG#
 Something inside of me keeps on telling me to run.   
 BbC
Whatcha gonna do to me?  
 GG#BbCGG#
 Something inside of me keeps on telling me to run.   
 BbC
Whatcha gonna do to me? 

 BbCBbC
 I was hooked with just one look,
 BbCBbC
   Easy prey, child's play.
 BbCBbC
 I knew this girl was no one night stand;
 BbCBbC
 Felt just like putty in her hands.

 GG#BbCGG#
 Something inside of me keeps on telling me to run.   
 BbC
Whatcha gonna do to me?  
 GG#BbCGG#
 Something inside of me keeps on telling me to run.   
 BbC
Whatcha gonna do to me? 

 FmGm
 Got no answers, got no cure,
 FmGm
 But one thing I know for sure:
 FmGm
 This is the girl, she's the one.
 FmGmG
 She makes it so hard for me to run.   

 GG#BbCGG#
 Something inside of me keeps on telling me to run.   
 BbC
Whatcha gonna do to me?  
 GG#BbCGG#
 Something inside of me keeps on telling me to run.   
 BbC
Whatcha gonna do to me? 

Solo:
e-|------------------------6--------------------------------|
B-|------4--------4----6h8---8------4-------4---------------|
G-|--3h5---5--3h5---5-----------3h5---5-3h5----8-5-------5--|
D-|------------------------------------------------8-5-8----|
A-|---------------------------------------------------------|
E-|---------------------------------------------------------|
e-|------------------------6---------------------------------|
B-|------4--------4----6h8---8------4-------4----------------|
G-|--3h5---5--3h5---5-----------3h5---5-3h5----8-5-------5---|
D-|------------------------------------------------8-5-8---8-|
A-|----------------------------------------------------------|
E-|----------------------------------------------------------|

''People tell me!''
 C
 You might as well face it, she's covered all the bases.
 C
 You might as well face it, she's covered all the bases.

 GG#BbCGG#
 Something inside of me keeps on telling me to run.   
 BbC
Whatcha gonna do to me?  
 GG#BbCGG#
 Something inside of me keeps on telling me to run.   
 BbC
Whatcha gonna do to me? 

 GG#BbCGG#
 Something inside of me keeps on telling me to run.   
 BbC
Whatcha gonna do to me?  
 GG#BbCGG#
 Something inside of me keeps on telling me to run.   
 BbC
Whatcha gonna do to me? 


Bb C Fm G G# Gm
variations - click chord images
Transpose chords:
Tuning:
Cool service:
View: Size:
A  A  A
Rating:
Layout:
  • Currently 3.3/5 Stars.
  • 1
  • 2
  • 3
  • 4
  • 5
 
Accuracy:
  • Currently 3.4/5 Stars.
  • 1
  • 2
  • 3
  • 4
  • 5
 
click stars to rate
Chordie recommends:
Learn to play this song & others via video guitar lessons at JamPlay.com
Songbook:
Login to add this song to your songbook
Support the artist
Preview/buy this song
MSN Music
Why this non-profit ad?

 
login to add comments/video/corrections