eToCache5 = ""; ?> We're All the Way by Eric Clapton - guitar chords, guitar tabs and lyrics - chordie

We're All the Way

Eric Clapton

 DDsus4D
------2---3---5-2-----2---3-2-0----
--------3-----------3---3-------3--
---2--------2----------------------
-0---------------------------------
-----------------------------------
-----------------------------------
-----2----3---5-2-----2---5---3----
--------3-----------3---3---3---3--
---2--------2----------------------
-0---------------------------------
-----------------------------------
-----------------------------------

 DG
 There's no cause to think that I won't stay
 D
Haven't I've been with you all the way?
 DG
 There's no time like now to make amends
 D
After all we are only friends.
 DGD
Chorus:   This could be the time for you and me
 DGD
          We could go wherever we should be
 AD
          So don't put words between us we shouldn't say
 A
          And don't be acting halfway
 GD
          When you know we're all the way
There are times when I don't see the light,
And I don't know if what I do is right.
But when I'm wrong it's never ment for you,
So don't confuse my love with what I do.
Chorus


















A D Dsus4 G
variations - click chord images
Transpose chords:
Tuning:
Cool service:
View: Size:
A  A  A
Rating:
Layout:
  • Currently 2/5 Stars.
  • 1
  • 2
  • 3
  • 4
  • 5
 
Accuracy:
  • Currently 2.5/5 Stars.
  • 1
  • 2
  • 3
  • 4
  • 5
 
click stars to rate
Chordie recommends:
Learn how to play guitar at JamPlay.com
Songbook:
Login to add this song to your songbook
Support the artist
Preview/buy this song
MSN Music
Why this non-profit ad?

 
login to add comments/video/corrections