eToCache5 = ""; ?> My Immortal by Evanescence - guitar chords, guitar tabs and lyrics - chordie

My Immortal

Evanescence

--------------------------------------------------


 Bb---2nd
 G  --- 3rd   (Tune 5th Fret, 3rd string to open 2nd.) *
D --- 4th
A --- 5th
D --- 6th (Tune 7th Fret, 6th string to open 5th.) *

* - Incidates a Tuning Alteration from standard E tuning.

---------------------------------------------------


Chords used:

 EbDFG5BbD/BbD5C5
E       ---------------------0---------------
Bb      -----------------0---0---0-------------
G       -3---2---2---7---2---2---7-----------
D       -1---0---0---5---3---3---7---10--------
A       -1---0---3---5---3---0---5---8--------
D       -1---0---3---5---1---0---0---8--------
----------------------------------------------------


Verse

 BbD/Bb
E  ---------------------|---------------------
Bb ----------2----------|---------2-----2-----
G  -----3-------3-------|-----------3---------
D  ---3---3-------3-----|------3------3-------
A  --1-----1--------1---|----0----------------
D  ---------------------|--0------------------


 BbD/Bb
 I'm so tired of being here

 BbD/Bb
 Supressed by all my childish fears

 BbD/Bb
 and if you have to leave, I wish that you would just leave.

 BbD/Bb
 Because your presence still lingers here, and it won't leave me alone

------------------------------------------------------


Pre-chorus

 G5D5
E  -----------|-------------------
Bb -----------|-------------------
G  .----------|------7----------.-
D  .-----5----|----7---7--------.-   3x
A  ----5------|--5-------5--------
D  --5--------|-------------------


Then:

 F
E   ----------------------
Bb  ----------------------
G   ------5---------------
D   ----3---3-------------
A   ---3-----3------------
D   --3-------3-----------


 G5/D5
    These wounds wont seem to heal

 G5/D5
    This pain is just too real

 G5/D5F
    Theres just too much that time cannot erase

------------------


Chorus

 G5EbFD
E   ---------|---------|---------|--------------------
Bb  ---------|---------|---------|--------------------
G   ---------|-------3-|------2--|-------2-----2------
D   ------5--|-----1---|---------|-----------0---0----
A   ----5----|---1-----|---3-----|----0----0----------
D   --5------|-1-------|-3-------|--0-----------------


 G5EbFD
    When you cried, I wiped away all of your tears

 G5EbFD
    When you screamed, I'd fight away all of your fears

 G5EbFD
    and I've held your hands through all of these years

G5 Eb F Bb (back to verse)
that you still have... on me

--------------------------------------


Bridge

 EbGFEb
E   ------------------|------------------|-------------------|-------------------
Bb  ------------------|------------------|-------------------|-------------------
G   ----------3-------|------------7-----|------5-----5------|--------------------
D   ----1---1---1-----|------5---5---5---|----------3---3----|------1------1------
A   ---1--1-------1---|----5---5-------5-|----3---3-------3--|----1---1---1-------
D   --1---------------|--5---------------|--3----------------|--1-------1-------0-


 EbFDC5
E  -------------|-------------------|--------------------|-----------------------
Bb -------------|-------------------|--------------------|-----------------------
G  -------------|-----5-------------|------2--------2----|-----------------------
D  ---1---1---1-|----------3--------|--------0-----------|-----10----------------
A  --1---1--1---|---3----3------3---|----0--------0---0--|---8-----8-----8---8---
D  -1---1-------|-3-----------3---3-|--0-----------------|-8-----------8---7----5- (to chorus)


 EbGFEb
 I've tried so hard to tell myself that you're gone

 EbFDC5
but though you're still with me, I've been alone

G5 (back to chorus)
I'm alone


Bb C5 D D5 Eb F G G5
variations - click chord images
Transpose chords:
Tuning:
Cool service:
View: Size:
A  A  A
Rating:
Layout:
  • Currently 0/5 Stars.
  • 1
  • 2
  • 3
  • 4
  • 5
 
Accuracy:
  • Currently 0/5 Stars.
  • 1
  • 2
  • 3
  • 4
  • 5
 
click stars to rate
Chordie recommends:
Learn how to play guitar at JamPlay.com
Songbook:
Login to add this song to your songbook
Support the artist
Preview/buy this song
MSN Music
Why this non-profit ad?

 
login to add comments/video/corrections