Guitar Tabs, Chords and Lyrics


Chrysanthemum   Everclear



CHRYSANTHEMUM
Slow Motion Daydream
Lyrics By Art Alexakis
Music by Everclear
Tabbed By JR (soggypeaches@yahoo.com)

ALL STRINGS TUNED DOWN A HALF STEP

Eb|------------------------------------
Bb|------------------------------------
Gb|------0---------0---------------0---
Db|---9----------9-------------11------
Ab|-7------7--10-----10/----12-------12
Eb|------------------------------------
   Yes I Hate The Way I Feel And It Makes No Sence
   Five Months Gone And All I Got
   Pretty Pink Flowers On A Chain Link Fence
   And I Dont Like What It Means Cause I Know Ther Is More To Come

Eb|-------------------------------
Bb|-------------------------------
Gb|------0--------0-----------0---
Db|----5--------1----------2------
Ab|-3------3--2------2---0-------0
Eb|-------------------------------
   I Cant Go Home Without Crysanthemum


Eb|------------------------------------
Bb|------------------------------------
Gb|------0---------0---------------0---
Db|---9----------9-------------11------
Ab|-7------7--10-----10/----12-------12
Eb|------------------------------------
   I walk around lost and I dont know why
   Dont See The faces or the places that i should recognize
   Its like that dream where it looks like home
   But it dont look right

Eb|-------------------------------
Bb|-------------------------------
Gb|------0--------0-----------0---
Db|----5--------1----------2------
Ab|-3------3--2------2---0-------0
Eb|-------------------------------
   Yes I will look everywhere tonight

Eb|------------------------------------
Bb|------------------------------------
Gb|------0---------0---------------0---
Db|---9----------9-------------11------
Ab|-7------7--10-----10/----12-------12
Eb|------------------------------------

Eb|-------------------------------
Bb|-------------------------------
Gb|------0--------0-----------0---
Db|----5--------1----------2------
Ab|-3------3--2------2---0-------0
Eb|-------------------------------
    I will not stop until i make things right
    I cant go home until I see the sun
    I Cant Go Home with out Chysanthemum


Eb|-------
Bb|-------
Gb|-------
Db|-------
Ab|2/7---7
Eb|----0--
           No I

Eb|-------------|
Bb|-------------|
Gb|----0-------0|
Db|--5-------1--|
Ab|3-----3-2----|
Eb|-------------|
   Can Go Home Without Chrysanthemum

Eb|-------
Bb|-------
Gb|-------
Db|-------
Ab|2/7---7


Important: The song above is NOT stored on the Chordie server. The original song is hosted at www.xguitar.com. Chordie works as a search engine and provides on-the-fly formatting. Chordie does not index songs against artists'/composers' will. To remove this song please click here.

This song is displayed as text-only. Transposing and tuning is only available for chordpro-songs.

Login - add to songbook

Rating click stars to rate

Layout
Accuracy

SHARE PAGE  




You need to log in to post comments