Chordie logo

So Much For The Afterglow   Everclear



So Much For The Afterglow
As recorded by Everclear on "So Much for the Afterglow"
Transcribed by Hugh Yik (hyik@nb.sympatico.ca)

VERSION 1 - Tabbed by Hugh Yik
 
MAIN RIFF
e----------------------------------------|
B----------------------------------------|
G-----------7-7-7-7-----------4-4-4-4----|
D--7-7-7-7--7-7-7-7--4-4-4-4--4-4-4-4----|
A--7-7-7-7--5-5-5-5--4-4-4-4--2-2-2-2----|
E--5-5-5-5-----------2-2-2-2-------------|
  
 
FILL 1-
e-------------------------------------------------------------------------|
B-------------------------------------------------------------------------|
G-----------7-7-7-7-----------------------------------------7---7---------|
D--7-7-7-7--7-7-7-7--4-4-4-4--3-3-3-3--2-2-2-2-2-2-2-2----7---7---7---7---|
A--7-7-7-7--5-5-5-5--4-4-4-4--3-3-3-3--2-2-2-2-2-2-2-2--5-----------5-----|
E--5-5-5-5-----------2-2-2-2--1-1-1-1--0-0-0-0-0-0-0-0--------------------|
  
 
FILL 2
e---------------------------|
B---------------------------|
G-----------7-7-7-7---------|
D--7-7-7-7--7-7-7-7--4------|
A--7-7-7-7--5-5-5-5--4------|
E--5-5-5-5-----------2------|
  

CHORUS
e--------------------------------------------------------|
B--------------------------------------------------------|
G-----------7-7-7-7--9-9-9-9--7-7-7-7--6-6-6-6--7-7-7-7--|
D--7-7-7-7--7-7-7-7--9-9-9-9--7-7-7-7--6-6-6-6--7-7-7-7--|
A--7-7-7-7--5-5-5-5--7-7-7-7--5-5-5-5--4-4-4-4--5-5-5-5--|
E--5-5-5-5-----------------------------------------------|
  
 
e--------------------|
B--------------------|
G--4-4-4-4--7-7-7-7--|
D--4-4-4-4--7-7-7-7--|
A--2-2-2-2--5-5-5-5--|
  
 
SOLO
e------------------------------------------------------------------------------------|X2
B--/10--10-10-10/12-12/14--14--14-14-14\12-12\10--10--10-10-10\9-9\7--7--7-7-7\5--5--|
G------------------------------------------------------------------------------------|
D------------------------------------------------------------------------------------|
A------------------------------------------------------------------------------------|
E------------------------------------------------------------------------------------|
  
 
SOLO FILL
e-------------------|REPEAT...
B--5-H7-P5-H7-------|
G-------------------|
D-------------------|
A-------------------|
E-------------------|
 
FILL 3
e|--5--5--2--2--|REPEAT...
B|--5--7--2--4--|
G|--6--7--3--4--|
D|--7--7--4--4--|
A|--7--5--4--2--|
E|--5-----2-----|
 
END SLOW WITH>

e--1--0--|
B--1--0--|
G--2--1--|
D--3--2--|
A--3--2--|
E--1--0--|
  

JASON'S EVERCLEAR TABS - http://members.tripod.com/~panec/


Important: The song above is NOT stored on the Chordie server. The original song is hosted at www.xguitar.com. Chordie works as a search engine and provides on-the-fly formatting. Chordie does not index songs against artists/composers will. To remove this song please click here.

This song is displayed as text-only. Transposing and tuning is only available for chordpro-songs.

Login - add to songbook

Rating click stars to rate

Layout
Accuracy

SHARE PAGE  



You need to log in to post comments