Guitar Tabs, Chords and Lyrics


Sunflowers  Everclear

e|--------------------|


B|--------------------|


G|----------5-5-5-----|


D|----------5-7-5---5-|


A|--3-3-3/7-------7-5-|


E|--------------------|

    [C9]       [G]                                                                           
e|--------3-3------------|
B|--3---3-3-3------------|
G|--0-0-0-0-0--0-2-4p2p0-|
D|--x-2-0-0-0------------|
A|--3-3---2-2------------|
E|--------3-3------------|

BACKGROUND (G2)
e|--3-5-7p5p3--|
B|--3-3-3-3-3--|
G|-------------|
D|-------------|
A|-------------|
E|-------------|

VERSE RIFF(G1)
e|-----------------------|
B|-----------------------|
G|------0-2-4p2p0-----0--|
D|--0-0-----------0-0-0--|
A|--2-2-----------0-3----|
E|--3-3------------------|

RIFF 2
    [Am]    [C]   [GG]    [C9]   [GG]   RIFF 3
B5 C5 G5 B5 C5 D5 G5 G5 B5 C5 D5\
RIFF 4
B5 C5 D5 E C5 C9 D5\
VERSION 2 - Tabbed by CJ Minyard
most of this song is in time, but i am not that good at tabbing out timing
so don't blame me. just listen to the song
Tuning - Standard(EADGBe)
Intro:
e|-------------------------------|
B|-------------------------------|
G|--------------0--2--0----------|
D|---------1h2-----------0h2-----|
A|---2--3---------------------3--|
E|-------------------------------|

Verse
e|--3--3-----------------------|
B|--0--0--------------3--3-----|
G|--0--0--0--2-4p2p0--0--0-----|
D|--0--0--------------2--2--0--|
A|--2--2--------------3--3--0--|
E|--3--3--------------------0--| 

Post Verse:(yes i know where you go......)
e|---------------------3--3--------------------------3--3-------------------|
B|---1-----1--1-----1--0--0-----------------3--3-----0--0--------------3----|
G|---2-----2--0-----0--0--0--0--2-4p2p0--0--0--0--0--0--0---0-2-4p2p0--0----|
D|---2-----2--2-----2--0--0-----------------2--2--0--0--0--------------2----|
A|---0-----0--3-----3--2--2-----------------3--3--0--2--2--------------3----|
E|---------------------3--3-----------------------0--3--3-------------------|
e|---------|
B|---3-----|
G|---0-----|
D|---2--0--|
A|---3--0--|
E|------0--|                 

Chorus:
e|--2-----3--2-----2--|
B|--4--1--3--4--1--3--|
G|--4--0--0--4--0--2--|
D|--4--2--0--4--2--0--|
A|--2--3--2--2--3-----|
E|--------3-----------|

Extended Chorus:
When you were a c[B]hild you were happy and f[C]ree
you were my reason to l[G]ive
I would die if you sm[B]iled at me
I can still s[C]ee you painting pictures on the w[D]all
I remember you h[G]appy I remember it all
Outro:
Sunflowers in y[B]our room
Sunflowers in y[D]our room
Sunflowers in y[Em]our room
All I want to r[B]emember
Pretty pictures on the w[D]all
I remember you h[Em]appy
I remember it a[B]ll
All I wanna rem[B]ember (All I wanna rem[D]ember)
[D]Sunflowers In your room
Song order:
Intro
Verse
Post Verse 2x
Verse
Post Verse 2x
Chorus 1x
Verse
Post Verse 2x
Extended Chorus
Chorus 1x
verse riff 2x
Outro
Verse riff 4x
VERSION 3 - Tabbed by Steve Smith
This song has another genius little riff from Art, it isn't hard to play, but
those types of things add so much to a song.
riff 1
e|-------------------------------------------------------
b|-------------------------------------------------------
g|--0-2--4p2-0---0-0-------------------------------------
d|---------------2-2---0-0-------------------------------
a|---------------3-3---2-2-------------------------------
e|---------------------3-3-------------------------------

Chorus
G_________________G/B
____When you were a child
_________________C
You were happy and free
___________________G
You were my reason to live
__________________G/B
I would die when you smiled at me
________C
I can still see
_________________D
I remember you painting
________________G
Sunflowers in your room
Chorus2
A_________________G/B__C
I see you run around in circles
_____________G/B__A__G
I see you diggin your own hole
_______________C____A__G
I see you fight the fights you just can't win
___________C________A
I see you losin your self control
_________________G/B_____C
What it does to me deep down inside
_________________A
I hope you will never know
JASON'S EVERCLEAR TABS - http://members.tripod.com/~panec/

Important: The song above is NOT stored on the Chordie server. The original song is hosted at www.xguitar.com. Chordie works as a search engine and provides on-the-fly formatting. Chordie does not index songs against artists'/composers' will. To remove this song please click here.

Text color:
Chord color:
Chord grids: 
Font size:    
Page size: 

Am B C C9 D Em G
variations - click chord images

Login - add to songbook

Transpose chords

Tuning

Rating click stars to rate

Layout
Accuracy

SHARE PAGE  




You need to log in to post comments