Guitar Tabs, Chords and Lyrics


Halloween Americana   Everclear



Halloween Americana
As recorded by Everclear on "SFAAM #2: Good time for a Bad Attitude"
Tabbed by Andrew Beck (beckfamily@twave.net or www.songsfromanamericanmovie@hotmail.com) 
and Hugh Yik (hyik@nb.sympatico.ca)

VERSION 1 - Tabbed by Andrew Beck 
 
This is an awesome song. I used my pedal to slow down the solo.
I am sure this is close. The previous tabs were in standard
tuning, but I think it's dropped down a 1/2 Step.

Tuning: down 1/2 step

Intro:    
Eb|---------------------------------------------------------|
Bb|---------------------------------------------------------|
Gb|-----7-7-7-------9-9-9-----------------------------------|
Db|-----7-7-7-------9-9-9-----------------------------------|
Ab|-----5-5-5-------7-7-7-----------------------------------|
Eb|---------------------------------------------------------|

Verse:
Eb|----------------------------------------------------------------|
Bb|----------------------------------------------------------------|
Gb|-----7-7-7--9-9-9---------5-5-5----------4-4-4------------------|
Db|-----7-7-7--9-9-9---7-7---5-5-5---5-5----4-4-4---5-5-5---7-7-7--|
Ab|-----5-5-5--7-7-7---7-7---3-3-3---5-5----2-2-2---5-5-5---7-7-7--|
Eb|--------------------5-5-----------3-3------------3-3-3---5-5-5--|

Eb|---------------------------------------------------------|
Bb|---------------------------------------------------------|
Gb|-----7-7-7-------9-9-9-----------------------------------|
Db|-----7-7-7-------9-9-9-----------------------------------|
Ab|-----5-5-5-------7-7-7-----------------------------------|
Eb|---------------------------------------------------------|

Guitar Fill:  1                    Guitar Fill: 2
Eb|---------------------------------------12--------------|
Bb|------------------------------------------12-----------|
Gb|-----------9-----7---REPEAT----------------------------|
Db|---------9---------------------------------------------|
Ab|---5-/-7-----------------------------------------------|
Eb|-------------------------------------------------------|

Eb|---12----12--14--14^15--14--12-------------------------|
Bb|------12-----------------------12----------------------|
Gb|-----------------------------------REPEAT--------------|
Db|-------------------------------------------------------|
Ab|-------------------------------------------------------|
Eb|-------------------------------------------------------|

Play Guitar Fill 1 a few times then play this
Pre-Solo:
Eb|------------------------------------------------------|
Bb|------------------------------------------------------|
Gb|----------9----------9----------9---------9-----------|
Db|--------9----------9----------9---------9-------------|
Ab|--7-/-9------7-/-9------7-/-9-----7-/-9---------------|
Eb|------------------------------------------------------|

Solo:  This is a killer solo. Art Alexakis ROCKS.
Eb|----------------------------------------------------------|
Bb|----------------------------------------------------------|
Gb|----------------12h14--12h14--12-14--14^-14^-------12h14--|
Db|---------12--14------------------------------12h14--------|
Ab|--12--14--------------------------------------------------|
Eb|----------------------------------------------------------|

Eb|----------------------------------------------------|
Bb|----------------------------------------------------|
Gb|--14^-14^--------12h14---14^-14^--12h14p12---11-----|
Db|-----------12h14------------------------------------|
Ab|----------------------------------------------------|
Eb|----------------------------------------------------|

Eb|----------------------------------------------------------|
Bb|---/14--14^--12h14--12h14--14^-14^--12h14-12h14--14^--14^-|
Gb|----------------------------------------------------------|
Db|----------------------------------------------------------|
Ab|----------------------------------------------------------|
Eb|----------------------------------------------------------|

Eb|-------------------------------------------------------|
Bb|---12h14--12h14--14^-14^-------------------------------|
Gb|-------------------------14--12----12--------12--14----|
Db|--------------------------------14----12--14-----------|
Ab|-------------------------------------------------------|
Eb|-------------------------------------------------------|

Eb|--/12-/14/15-------15h17--17^-17^-------15h17-17^-17^--|
Bb|-------------15h17----------------15h17----------------|
Gb|-------------------------------------------------------|
Db|-------------------------------------------------------|
Ab|-------------------------------------------------------|
Eb|-------------------------------------------------------|

Eb|--------15h17-17^-17^---17-15--------12----------------|
Bb|---15h17----------------------17--15----15-------------|
Gb|-------------------------------------------------------|
Db|-------------------------------------------------------|
Ab|-------------------------------------------------------|
Eb|-------------------------------------------------------|

Eb|---15p14-14-14-\-12-12-12-12-\-10-/12--12-15-12--------|
Bb|-------------------------------------------------15-12-|
Gb|-------------------------------------------------------|
Db|-------------------------------------------------------|
Ab|-------------------------------------------------------|
Eb|-------------------------------------------------------|

Eb|---15p14-14-14-\-12-12-12-\-10-/12---12-15-12-----------------------|
Bb|----------------------------------------------15-12-15--------------|
Gb|-------------------------------------------------------14^----------|
Db|--------------------------------------------------------------------|
Ab|--------------------------------------------------------------------|
Eb|--------------------------------------------------------------------|

        4X:
Eb|----------------------------------------------------|
Bb|----------------------------------------------------|
Gb|---14^----------12h14--12h14--14^-------------------|
Db|----------12h14-------------------------------------|
Ab|----------------------------------------------------|
Eb|----------------------------------------------------|
   
   4x: together with above riff
Eb|---17^----------15h17--15h17--17^-------------------|
Bb|----------15h17-------------------------------------|
Gb|----------------------------------------------------|
Db|----------------------------------------------------|
Ab|----------------------------------------------------|
Eb|----------------------------------------------------|
 
   Then go back to this lick:
Eb|----12-----12---14--14^15-14--12--------------------|
Bb|-------12------------------------12-----------------|
Gb|----------------------------------------------------|
Db|----------------------------------------------------|
Ab|----------------------------------------------------|
Eb|----------------------------------------------------|
 
   Outro:
Eb|---2-----0----0-----0----0----2----0------------------|
Bb|---3-----0----0-----1----1----3----0------------------|
Gb|---2-----1----1-----0----0----2----1------------------|
Db|---0-----2----2-----2----2----0----2------------------|
Ab|---0-----2----2-----3----3---------2------------------|
Eb|---------0----0--------------------0------------------|

I hope this will help out some EVERCLEAR FANS!
If you have any questions or suggestion, e-mail me at
www.songsfromanamericanmovie@hotmail.com

                Later,
			Andrew Beck (Everclear's #1 Fan)

VERSION 2 - Tabbed by Hugh Yik http://everclearrocks.cjb.net

Intro
G.2v Db    Eb
e|----------------------------|
B|----------------------------|
G|--6-6-6-8-8-8-8r------------|
D|--6-6-6-8-8-8-8r------------|
A|--4-4-4-6-6-6-6r------------|
E|--4-4-4-6-6-6-6r------------|
 |G.1v                        |
e|--------------------------9-|
B|----------------------------|
G|------------------------8---|
D|----------------------8-----|
A|------------------4/6-------|
E|----------------------------|

Main Rhythm??-->(This sounds very close but maybe some one could check it out?)
----Eb,Ab,B,Gb,Bb,Gb,Ab,Db. 

Lead Fill G.1 (0:29)
e|--11---------|
B|----11-11rrr-|
G|-------------|Repeat..
D|-------------|
A|-------------|
E|-------------|

Main Lead Riff(0:40)                       (0:51)&(2:11)
e|--11----11--13-13b--11-13--|       Then:|--------14-16-16b--14-16--|
B|-----11--------------------|            |--16----16-18-18b--16-18--|
G|---------------------------|Repeat..    |-----15-------------------|Repeat..
D|---------------------------|            |--------------------------|
A|---------------------------|            |--------------------------|
E|---------------------------|            |--------------------------|

Pre-Solo thingy (1:02)&(2:34)
  Eb'''Gb~                        Part 2 (1:12)
e|---------------------|repeat...|-----------------|repeat...
B|---------------------|         |-----------------|
G|---------------8-6r--|         |-------8-------8-|
D|-------------8-------|         |-----8-------8---|
A|---------4/6---------|         |-4/6-----4/6-----|
E|---------------------|         |-----------------|

Solo (1:25) (Can't figure out where what is yet but here is the basic progresion of the solo)
 |--6-8-6-8-9b-9b--|

Suggestion from Nick Arciaga (jedirex311@earthlink.net)

Hi. I almost have the rhythm and fills for HA. to simplify it, its power 
chords that start on the A string that goes 

Intro
e|-----------------------------------------------|
B|-----------------------------------------------|
G|--6-6-6-6---8-8-8------------------------------|
D|--6-6-6-6---8-8-8------------------------------|
A|--4-4-4-4---6-6-6------------------------------|
E|-----------------------------------------------|

main rhythm-again in power chords
e|-----------------------------------------------|
B|-----------------------------------------------|
G|--8-----4-----3-----6--------------------------|
D|--8--6--4--4--3--4--6--------------------------|
A|--6--6--2--4--1--4--4--------------------------|
E|-----4-----2-----2-----------------------------|
i think you can figure out the rhythm

e|-11-----11-/13/14\13\11/13---------------------|do that for a number of times
B|----11-----------------------------------------|
G|-----------------------------------------------|
D|-----------------------------------------------|
A|-----------------------------------------------|
E|-----------------------------------------------|

i havent figured out the solo but i hope that helps.
Nick Arciaga

JASON'S EVERCLEAR TABS - http://members.tripod.com/~panec/


Important: The song above is NOT stored on the Chordie server. The original song is hosted at www.xguitar.com. Chordie works as a search engine and provides on-the-fly formatting. Chordie does not index songs against artists'/composers' will. To remove this song please click here.

This song is displayed as text-only. Transposing and tuning is only available for chordpro-songs.

Login - add to songbook

Rating click stars to rate

Layout
Accuracy

SHARE PAGE  




You need to log in to post comments