""; ?> Heartspark Dollarsign by Everclear - guitar chords, guitar tabs and lyrics - chordie

Heartspark Dollarsign

Everclear

 AGDAGDAGD
e|-------------3--2----------------------3------5-5-5-5--3-3-3------------|
B|----5--------3--3---------5---------3----2----5-5-5-5--3-3-3------0-----|
G|-----------0----2---------0---------0------3--0-0-0-0--0-0-0----2---2-0-|
D|---------0------------------------0-----------0-0-0-0--0-0-0------------|
A|-----------------------4--------2-------------4-4-4-4--2-2-2------------|
E|-5-----3-------------5--------3---------------5-5-5-5--3-3-3------------|

(Main Riff) (Fill 1)
 GDGD
e|-3----------------0---------------| e|-10-10-8-8-7-7--------|
B|-3---------0------1---------0-----| B|---------------10-10--|
G|-0-------2---2-0--0-------2---2-0-| G|----------------------|
D|-0----------------2---------------| D|----------------------|
A|-2----------------3---------------| A|----------------------|
E|-3----------------0---------------| E|----------------------|

(Intro x1)
(Main Riff) x2
(Only bass playing G D C D in this verse until after fill 1 is played)
Time stops when the whispers blare
The voices drop hard, but the eyes still stare
(fill 1) (guitar returns)
The world resolves into a death's head grin
 AmC
 Because I walk with pride with a black girlfriend
(Main riff) x1
(Play a muted version of the main riff throughout this chorus)
My mom said not to bring her around
'Cause she's black my family would put her down
I'll break the white-trash ties that bind
 AmC
 Trade a love so pure for a hate so blind
(Main Riff) x1
 AmEm
 She said, she said
 CGDG
 Forget the fact that I don't look like you
 AmEm
 She said, she said
 CD
 You're possessed with a power bigger than the pain
(Main riff played over solo)
e|--12-10---7-10-7-10--7/---------7-10-7--10-7-10----|
B|---------------------------8-10-----------------7b-|
G|---------------------------------------------------|
D|---------------------------------------------------|
A|---------------------------------------------------|
E|---------------------------------------------------|
e|------7-10-7--10-7-10-------------------------6-6-6-6-6-6-6-6-|
B|-8-10-----------------7b---7-8-8-8-8-8-8-8-8--8-8-8-8-8-8-8-8-|
G|-----------------------------9-9-9-9-9-9-9-9------------------|
D|--------------------------------------------------------------|
A|--------------------------------------------------------------|
E|--------------------------------------------------------------|
e|-7-7-7-7-7-7-7-7--6-6-6-6-6-6-6-6-|
B|-8-8-8-8-8-8-8-8--8-8-8-8-8-8-8-8-|
G|----------------------------------|
D|----------------------------------|
A|----------------------------------|
E|----------------------------------|
e|-7-7-10-10-7-7-10-10-7-7-10-10-----------------3----------------------|
B|-8-8-8--8--8-8-8--8--8-8-8--8-----------0------3--0--3--------0--3----|
G|--------------------------------------2---2-0--0--------2-----------2-|
D|-----------------------------------------------0----------------------|
A|-----------------------------------------------2----------------------|
E|-----------------------------------------------3----------------------|
e|-------------------5-5-5-5--3-3-3-|
B|-------------------5-5-5-5--3-3-3-|
G|-------------------0-0-0-0--0-0-0-|
D|-------------------0-0-0-0--0-0-0-|
A|-------------------4-4-4-4--2-2-2-|
E|--5-5-5-5--3-3-3---5-5-5-5--3-3-3-| (end of Solo)

(Fill 2) (Fill 3)
e|------------| e|------7-10-7--10-7-10----|
B|-----0------| B|-8-10-----------------7b-|
G|--2----2--0-| G|-------------------------|
D|------------| D|-------------------------|
A|------------| A|-------------------------|
E|------------| E|-------------------------|

(Fill 2) (Fill 2) (Fill 2)
Time stops when we lie so close
(Fill 2) (Fill 2)
In my room where we share what no one knows
(Fill 2) (Fill 2)
From the day that we start til the day that we end
 AmC
 I know I know I know now
Am C D (main riff)
We will never find a place where we can just fit in
Me and my black girlfriend
 AmEm
 She said, she said
 CGDG
 Fend for yourself, you're alone  
 AmEm
 She said, she said
 CD
 You are possessed with a power
(main riff)
Bigger than the pain
A power bigger than the pain
(fill 3 over main riff)
A power bigger than the pain
(fill 3 over main riff)
Heartspark Dollarsign
VERSION 2 - Tabbed by Steve Smith
Intro
e|-----------------------
b|---------5-----------3-
g|--------------0------0-
d|------0--------------0-
a|-----------------------
e|-5---------------3-----
e|-----------------------------2-
b|---------5------------3------3-
g|--------------0-------0------0-
d|------0---------------0--------
a|-------------------------------
e|-5----------------3------------
e|-------------------------------2-----------
b|---------5------------3-----------3--------
g|--------------0-------0---------------0----
d|------0---------------0--------------------
a|-------------------------------------------
e|-5----------------3------------------------

main riff
e|--------------------------------------------------------
b|--------------------------------------------------------
g|-2-4-2-0-------------------2-4-2-0-----------0----------
d|----------------0------------------------------0--------
a|----------------0------------------------------3--------
e|----------------3---------------------------------------

fill#1 over lyrics "into a death's head grin"
e|---10/8-8-7-7-5-5--------------------------------
b|-----------------------8-------------------------
g|-------------------------------------------------
d|-------------------------------------------------
a|-------------------------------------------------
e|-------------------------------------------------

chorus
Am________Em
she said she said
C_________G______D__________G
Forget the fact that I dont look like you
Am_______Em
__she said she said
___C____________________D
You're possessed with a power bigger than the pain
solo
e|------------------------------------------------------
b|-----15b----15----12----15-----12-----15-------12-----
g|------------------------------------------------------
d|------------------------------------------------------
a|------------------------------------------------------
e|------------------------------------------------------
e|----------------------12--15----------------------------------
b|-0/17\0--12--15-----------12----------15------15--------------
g|---------------------------------------------------12------11-
d|--------------------------------------------------------------
a|--------------------------------------------------------------
e|--------------------------------------------------------------

(repeat that) then
e|-------------------------------------------
b|----12-12-12-12-12-12-12-12----------------
g|----12-12-12-12-12-12-12-12----------------
d|-------------------------------------------
a|-------------------------------------------
e|-------------------------------------------

(guitar2 with main riff)
G5______Dsus_________C
from the day that we start
______D5
til the day that we end
Am________C_____________Am
I know I know I know yeah
_________________C_______________D_____G
We will never find a place where we can just fit in
comments? suggestions? praise?
sesmith3@eos.ncsu.edu
JASON'S EVERCLEAR TABS - http://members.tripod.com/~panec/


A Am C D Em G
variations - click chord images
Transpose chords:
Tuning:
Cool service:
View: Size:
A  A  A
Rating:
Layout:
  • Currently 2.7/5 Stars.
  • 1
  • 2
  • 3
  • 4
  • 5
 
Accuracy:
  • Currently 2.5/5 Stars.
  • 1
  • 2
  • 3
  • 4
  • 5
 
click stars to rate
Chordie recommends:
Learn to play guitar with video-based, online guitar lessons at JamPlay.com
Songbook:
Login to add this song to your songbook
Support the artist
Preview/buy this song
MSN Music
Why this non-profit ad?

 
login to add comments/video/corrections